PrimaNota.ru - самый крупный в мире бесплатный архив песенных текстов, аккордов, табулатур и нот


Sungha Jung - Lonely - таба, видео

Регистрация Запомнить меня
Войти через:  Facebook Google Twitter Vk Yandex Mail.ru

Sungha Jung - Lonely - таба, видео

Печатать
Просмотров: 248
Legend
L - tied note
x - dead note
h - hammer on/pull off
b - bend
s - slide
~ - vibrato
g - ghost note
> - accentuated note
t - trill
M - palm mute
. - staccato
P - popping (bass)
S - slapping (bass)
+ - tapping
W - wide vibrato
< - fade in
w - whammy bar
= - tremolo picking
v - brush up
^ - brush down
V - pick stroke up
n - pick stroke down


E |----------------------------|----------------------------|
B |--5--------------5----------|--5--------5-----7-----7----|
G |-----------4-----------4----|----------------------------|
D |--------6-----------6-------|--------6-------------------|
A |----------------------------|----------------------------|
E |--0-----------0-------------|--0-----------0-----0-------|


----------------------------|----------------------------|
--------4-------------------|--4--------4-----5----------|
--------5--------5-----5----|----------------------------|
--------------------4-------|--------4-----------4-------|
----------------------------|----------------------------|
--4-----------4-------------|--4-----------4-------------|


----------------------------|----------------------------|----------------|
----------------------------|-----------------0-----2----|--2-------------|
--6--------------6----------|--4h-6-----6--------4-------|-----4--4-------|
--------6--6--------6-------|--------6-------------------|-----4--4--4----|
--4-----------4--------4----|--4-----------4-------------|--2--------2----|
----------------------------|----------------------------|----------------|


----------------|----------------------------|----------------------------|
----------------|----------------------------|--5--------5-----7-----7----|
--4-------------|--------4--------4-----4----|----------------------------|
-----4--4--6----|--------6-----------6-------|--------6-------------------|
--2-------------|----------------------------|----------------------------|
----------------|--0-----------0-------------|--0-----------0-----0-------|


----------------------------|----------------------------|
--------4-------------------|--4--------4-----5----------|
--------5--------5-----5----|----------------------------|
--------------------4-------|--------4-----------4-------|
----------------------------|----------------------------|
--4-----------4-------------|--4-----------4-------------|


----------------------------|----------------------------|
----------------------------|-----------------0-----2----|
--6--------------6----------|--4h-6-----6--------4-------|
--------6--6--------6-------|--------6-------------------|
--4-----------4--------4----|--4-----------4-------------|
----------------------------|----------------------------|


-----------------------2----|-----2--2-------|--------------7-----7-------|
--------2-----2-------------|-----------4----|--5--------------------7----|
--------4--------4----------|--------4-------|-----------4----------------|
--------------------4-------|-----4-----4----|--------6-----------6g------|
--2-------------------------|--2-------------|----------------------------|
----------------------------|----------------|--0-----------0g------------|


----------------------------|--------------7-------------|
--------7-----7-----5-------|--------5--------------7----|
-----4----------------------|--------4-------------------|
--------6-----------6-------|--------------------6-------|
----------------------------|----------------------------|
--0-----------0-------------|--4-----------4g------------|


----------------------------|----------------------------|
--------7-----7-----5-------|--------------5--------5----|
-----5----------------------|-----------6-----6----------|
--------6-----------6-------|--------6-----------6-------|
----------------------------|--4-----------4-------------|
--4-----------4-------------|----------------------------|


----------------------------|-----------------------4----|
--------------5--------5----|--------5-----5-------------|
-----------6-----6----------|--------4-------------------|
--------6-----------6-------|--------------4-------------|
--4-----------4-------------|--2-----------------2-------|
----------------------------|----------------------------|


-----------------2----------|--------------7-----7-------|
-----5-----5-----------0----|--------5--------------7----|
----------------------------|--------4-------------------|
--------4-----------4-------|--------------------6g------|
--2-----------2-------------|----------------------------|
----------------------------|--0-----------0g------------|


----------------------------|--------------7-------------|
--------7-----7-----5-------|--------5--------------7----|
-----4----------------------|--------4-------------------|
--------6-----------6-------|--------------------6-------|
----------------------------|----------------------------|
--0-----------0-------------|--4-----------4g------------|


----------------------------|----------------------------|
--------7-----7-----5-------|--------------5--------5h---|
-----5----------------------|-----------6-----6----------|
--------6-----------6-------|--------6-----------6-------|
----------------------------|--4-----------4-------------|
--4-----------4-------------|----------------------------|

                               ^     ^          ^
--------4--------0----------|--5--4--4--0----|--0--------------------4----|
-----7----------------------|--------0-------|--5-----------5--5s-7-------|
-----------------------x----|--4-----4-------|--4-------------------------|
--6-----------------x-------|--4g------------|----------------------------|
--------------4-------------|--2-------------|--x-------------------------|
----------------------------|----------------|----------------------------|

                 v                   v
--------4-----4--4----------|--4-----4-----4--------4----|
--------5-----5--5----------|--5-----5-----5-----7-------|
--------4-----4--4----------|--4-----4-----4-------------|
--------------x-----6-------|--x-----------x-------------|
----------------------------|----------------------------|
--0-------------------------|----------------------------|

                 v
--------4-----4--4----------|--4-----------------4-------|
--------4-----4--4----------|--4-----7-----7--------7----|
--------5-----5--5----------|--5-----------5-------------|
--------------x-----6-------|--x-----------x-------------|
----------------------------|----------------------------|
--4-------------------------|----------------------------|


----------------------------|--------4g------|--------2-----2-----2--4----|
--------5-----5--------5----|-----5--5-------|--------4-----4-------------|
--------6-----6-----6-------|-----6--6--6----|----------------------------|
--------------x-----6-------|--------x--6----|--------------x-------------|
--4-------------------------|--4-------------|--2-------------------------|
----------------------------|----------------|----------------------------|

                                              v
--------4-----4--------4----|--------4-----4--4----------|
--------4-----4-----7-------|--------5-----5--5----------|
----------------------------|--------4-----4--4----------|
-----4--------x-------------|--------------x-----6-------|
--2-------------------------|----------------------------|
----------------------------|--0-------------------------|

        v                                     v
--4-----4-----4--------4----|--------4-----4--4----------|
--5-----5-----5-----7-------|--------4-----4--4----------|
--4-----4-----4-------------|--------5-----5--5----------|
--x-----------x-------------|--------------x-----6-------|
----------------------------|----------------------------|
----------------------------|--4-------------------------|


--4-----------------4-------|----------------------------|--------4g------|
--4-----7-----7--------7----|--------5-----5--------5----|-----5--5-------|
--5-----------5-------------|--------6-----6-----6-------|-----6--6--6----|
--x-----------x-------------|--------------x-----6-------|--------x--6----|
----------------------------|--4-------------------------|--4-------------|
----------------------------|----------------------------|----------------|

                                                ^
----------------|----------------------------|----------------------------|
----------------|--12h14h12------------------|--5-----5-----5--------5----|
-----8--8--8----|--12-------14s11-9----------|--4-----4-----4-----x--4----|
----------------|--------------------11s9----|--6-----6-----6-----x--6----|
----------------|----------------------------|--------------x-------------|
--7-------------|----------------------------|--0-------------------------|


--------------4-----4--4----|----------------------------|
--------5-----5-----5-------|--------7-----7--7----------|
--------4-----4-----4-------|--------5-----5--5----------|
-----6--------x-------------|--------------x--------6----|
----------------------------|----------------------------|
--0-------------------------|--4-----------------4-------|


--------------------4--4----|--------------4g------------|
--7-----7-----7-----4-------|--------5-----5--------5----|
--5-----5-----5-----5-------|--------6-----6-----x-------|
--------------x-------------|-----6--------x-----x-------|
----------------------------|--4-------------------------|
--4-------------------------|----------------------------|


--------------7-----7--7----|----------------------------|
--------5-----5-------------|--------7-----7--7-----x----|
--------6-----6-------------|--------------8--8----------|
-----6--------x-------------|--------------x-----x-------|
--4-------------------------|----------------------------|
----------------------------|--7-------------------------|


-----------------------0----|----------------------------|
--------------0-------------|--------5-----5--------5----|
--8-----8-----8-----8-------|--------4-----4-----x--4----|
--------------x-------------|-----6--------x-----x--6----|
----------------------------|----------------------------|
----------------------------|--0-------------------------|


--------------4-----4--4----|----------------------------|
--------5-----5-----5-------|--------7-----7--7----------|
--------4-----4-----4-------|--------5-----5--5----------|
-----6--------x-------------|--------------x--------6----|
----------------------------|----------------------------|
--0-------------------------|--4-----------------4-------|


--------------------4--4----|--------------4g------------|
--7-----7-----7-----7-------|--------5-----5--------5----|
--5-----5-----5-----5-------|--------6-----6-----x-------|
--------------x-------------|-----6--------x-----x-------|
----------------------------|--4-------------------------|
--4-------------------------|----------------------------|

                                                ^
----------------------------|----------------|----------------|
--------5-----5-----5--5----|----------------|----------------|
--------6-----6-------------|-----5L-5L-5----|--7--7-----9----|
-----6--------x-------------|-----5L-5L-5----|--7--7-----7----|
--4-------------------------|----------------|--------x-------|
----------------------------|--8-------------|--10------------|


----------------------------|----------------------------|
--5--------------5----------|--5--------5-----7-----7----|
-----------4-----------4----|----------------------------|
--------6-----------6-------|--------6-------------------|
----------------------------|----------------------------|
--0-----------0-------------|--0-----------0-----0-------|


----------------------------|----------------------------|
--------4-------------------|--4--------4-----5----------|
--------5--------5-----5----|----------------------------|
--------------------4-------|--------4-----------4-------|
----------------------------|----------------------------|
--4-----------4-------------|--4-----------4-------------|


--4-------------------------|----------------------------|----------------|
----------------------------|-----------------0-----2----|-----2--2-------|
-----------------6----------|--4h-6-----6--------4-------|-----4--4--4----|
--------6--6--------6-------|--------6-------------------|----------------|
--4-----------4--------4----|--4-----------4-------------|--2-------------|
----------------------------|----------------------------|----------------|


----------------|----------------------------|----------------------------|
--4--5h-4-------|----------------------------|--5--------5-----7-----7----|
--5s-------4----|--------4--------4-----4----|----------------------------|
----------------|--------6-----------6-------|--------6-------------------|
--5s------------|----------------------------|----------------------------|
----------------|--0-----------0-------------|--0-----------0-----0-------|


----------------------------|--4--------4----------------|
--------4-------------------|--4--------4-----7-----7----|
--------5--------5-----5----|----------------------------|
--------------------4-------|--------4-----------4-------|
----------------------------|----------------------------|
--4-----------4-------------|--4-----------4-------------|


----------------------------|----------------------------|
--------5-------------------|-----------------0-----2----|
--------4--------6----------|--6--------6--------4-------|
--------------------6-------|--------6-------------------|
--4-----------4--------4----|--4-----------4-------------|
----------------------------|----------------------------|


-----------------------4----|-----------------2----------|
--------2-----2-------------|-----5-----5-----------0----|
--------4--------4----------|----------------------------|
--------------------4-------|--------4-----------4-------|
--2-------------------------|--2-----------2-------------|
----------------------------|----------------------------|


--------------7-----7-------|----------------------------|
--------5--------------7----|--------7-----7-----5-------|
--------4-------------------|-----4----------------------|
--------------------6g------|--------6-----------6-------|
----------------------------|----------------------------|
--0-----------0g------------|--0-----------0-------------|


--------------7-------------|----------------------------|
--------5--------------7----|--------7-----7-----5-------|
--------4-------------------|-----5----------------------|
--------------------6-------|--------6-----------6-------|
----------------------------|----------------------------|
--4-----------4g------------|--4-----------4-------------|


----------------------------|----------------------------|
--------------5--------5----|--------------5--------5----|
-----------6-----6----------|-----------6-----6----------|
--------6-----------6-------|--------6-----------6-------|
--4-----------4-------------|--4-----------4-------------|
----------------------------|----------------------------|


-----------------------9s---|--7--7--7--4----|--------------7-----7-------|
--------5-----5-------------|----------------|--------5--------------7----|
--------4-------------------|----------------|--------4-------------------|
--------------4-------------|----------------|--------------------6g------|
--2-----------------2-------|----------------|----------------------------|
----------------------------|----------------|--0-----------0g------------|


----------------------------|--------------7-------------|
--------7-----7-----5-------|--------5--------------7----|
-----4----------------------|--------4-------------------|
--------6-----------6-------|--------------------6-------|
----------------------------|----------------------------|
--0-----------0-------------|--4-----------4g------------|


----------------------------|----------------------------|
--------7-----7-----5-------|--------------5--------5h---|
-----5----------------------|-----------6-----6----------|
--------6-----------6-------|--------6-----------6-------|
----------------------------|--4-----------4-------------|
--4-----------4-------------|----------------------------|

                               ^     ^          ^
--------4--------0----------|--5--4--4--0----|--0--------------------4----|
-----7----------------------|--------0-------|--5-----------5--5s-7-------|
-----------------------x----|--4-----4-------|--4-------------------------|
--6-----------------x-------|--4g------------|----------------------------|
--------------4-------------|--2-------------|--x-------------------------|
----------------------------|----------------|----------------------------|

                 v                   v
--------4-----4--4----------|--4-----4-----4--------4----|
--------5-----5--5----------|--5-----5-----5-----7-------|
--------4-----4--4----------|--4-----4-----4-------------|
--------------x-----6-------|--x-----------x-------------|
----------------------------|----------------------------|
--0-------------------------|----------------------------|

                 v
--------4-----4--4----------|--4-----------------4-------|
--------4-----4--4----------|--4-----7-----7--------7----|
--------5-----5--5----------|--5-----------5-------------|
--------------x-----6-------|--x-----------x-------------|
----------------------------|----------------------------|
--4-------------------------|----------------------------|


----------------------------|--------------4g------------|
--------5-----5--------5----|--------5-----5-------------|
--------6-----6-----6-------|--------6-----6-----6-------|
-----6--------x-----6-------|-----6--------x-----6-------|
--4-------------------------|--4-------------------------|
----------------------------|----------------------------|


--------2-----2-----2--4----|--------4-----4--------4----|
--------4-----4-------------|--------4-----4-----7-------|
----------------------------|----------------------------|
--------------x-------------|-----4--------x-------------|
--2-------------------------|--2-------------------------|
----------------------------|----------------------------|

                 v                   v
--------4-----4--4----------|--4-----4-----4--------4----|
--------5-----5--5----------|--5-----5-----5-----7-------|
--------4-----4--4-----4----|--4-----4-----4-------------|
--------------x-----6-------|--x-----------x-------------|
----------------------------|----------------------------|
--0-------------------------|----------------------------|

                 v
--------4-----4--4----------|--4-----------------4-------|
--------4-----4--4----------|--4-----7-----7--------7----|
--------5-----5--5----------|--5-----------5-------------|
--------------x-----6-------|--x-----------x-------------|
----------------------------|----------------------------|
--4-------------------------|----------------------------|


----------------------------|--------4g------|----------------|
--------5-----5--------5----|-----5--5-------|----------------|
--------6-----6-----6-------|-----6--6--6----|-----8--8--8----|
-----6--------x-----6-------|--------x--6----|----------------|
--4-------------------------|--4-------------|----------------|
----------------------------|----------------|--7-------------|

                               ^
----------------------------|----------------------------|
--12h14h12------------------|--5-----5-----5--------5----|
--12-------14s11-9----------|--4-----4-----4-----x--4----|
--------------------11s9----|--6-----6-----6-----x--6----|
----------------------------|--------------x-------------|
----------------------------|--0-------------------------|


--------------4-----4--4----|----------------------------|
--------5-----5-----5-------|--------7-----7--7----------|
--------4-----4-----4-------|--------5-----5--5----------|
-----6--------x-------------|--------------x--------6----|
----------------------------|----------------------------|
--0-------------------------|--4-----------------4-------|


--------------------4--4----|--------------4g------------|
--7-----7-----7-----4-------|--------5-----5--------5----|
--5-----5-----5-----5-------|--------6-----6-----x-------|
--------------x-------------|-----6--------x-----x-------|
----------------------------|--4-------------------------|
--4-------------------------|----------------------------|


--------------7-----7--7----|----------------------------|
--------5-----5-------------|--------7-----7--7-----x----|
--------6-----6-------------|--------------8--8----------|
-----6--------x-------------|--------------x-----x-------|
--4-------------------------|----------------------------|
----------------------------|--7-------------------------|


-----------------------0----|----------------------------|
--------------0-------------|--------5-----5--------5----|
--8-----8-----8-----8-------|--------4-----4-----x--4----|
--------------x-------------|-----6--------x-----x--6----|
----------------------------|----------------------------|
----------------------------|--0-------------------------|


--------------4-----4--4----|----------------------------|
--------5-----5-----5-------|--------7-----7--7----------|
--------4-----4-----4-------|--------5-----5--5----------|
-----6--------x-------------|--------------x--------6----|
----------------------------|----------------------------|
--0-------------------------|--4-----------------4-------|


--------------------4--4----|--------------4g------------|
--7-----7-----7-----4-------|--------5-----5--------5----|
--5-----5-----5-----5-------|--------6-----6-----x-------|
--------------x-------------|-----6--------x-----x-------|
----------------------------|--4-------------------------|
--4-------------------------|----------------------------|

                                                ^
----------------------------|----------------|----------------|
--------5-----5-----5--5----|----------------|----------------|
--------6-----6-------------|-----5L-5L-5----|--7--7-----9----|
-----6--------x-------------|-----5L-5L-5----|--7--7-----7----|
--4-------------------------|----------------|--------x-------|
----------------------------|--8-------------|--10------------|


----------------------------|----------------------------|
--5-----------------5--5----|--5-----5--5-----7--4-------|
--4-----------------4--4----|--4-----4--4-----4----------|
--6-----------6-------------|----------------------------|
--------------------x-------|----------------------------|
--0-------------------------|--0-------------------------|

  ^
--------------4-------------|----------------------------|
--4-----------4--------x----|--4-----4-----5--------5----|
--5-----------5-----x-------|--5-----------4-------------|
--4-----------x-------------|--------------------6-------|
----------------------------|----------------------------|
--4-------------------------|--4-------------------------|

                                                                 ^
--------------------7--7----|--4--------4----|--5--4--4--5----|--5--4-------|
--------5--------5----------|--5--7--7--5----|--0--0--0--0----|--0--0-----0-|
--------4-----x-------------|--4--4--4-------|----------------|-------------|
--------------x-------------|--------6-------|--------x-------|--4----------|
--4-------------------------|--4-----x-------|--2-------------|--2-----x----|
----------------------------|----------------|----------------|-------------|


----------------------------|----------------------------|
--5-----------------5--5----|--5-----5--5-----7--4-------|
--4-----------------4--4----|--4-----4--4-----4----------|
--6-----------x-------------|----------------------------|
--------------x-----x-------|----------------------------|
--0-------------------------|--0-------------------------|

  ^
--------------4-------------|--7-----4-----4--------4----|
--4-----------4--------x----|--4-----4-----4-----7-------|
--5-----------5-----x-------|--5-----------5-------------|
--4-----------x-------------|--------------x-------------|
----------------------------|----------------------------|
--4-------------------------|--4-------------------------|


----------------------------|----------------|----------------|
-----7h-5-----5--------5----|-----5--5-------|----------------|
--------------4-----6-------|-----6--6--6----|-----8--8--8----|
--------------x-------------|--------x-------|----------------|
--4-------------------------|--4-------------|----------------|
----------------------------|----------------|--7-------------|

                               ^
----------------------------|----------------------------|
--12h14h12------------------|--5-----5-----5--------5----|
--12-------14s11-9----------|--4-----4-----4-----x--4----|
--------------------11s9----|--6-----6-----6-----x--6----|
----------------------------|--------------x-------------|
----------------------------|--0-------------------------|


--------------4-----4--4----|----------------------------|
--------5-----5-----5-------|--------7-----7--7----------|
--------4-----4-----4-------|--------5-----5--5----------|
-----6--------x-------------|--------------x--------6----|
----------------------------|----------------------------|
--0-------------------------|--4-----------------4-------|


--------------------4--4----|--------------4g------------|
--7-----7-----7-----7-------|--------5-----5--------5----|
--5-----5-----5-----5-------|--------6-----6-----x-------|
--------------x-------------|-----6--------x-----x-------|
----------------------------|--4-------------------------|
--4-------------------------|----------------------------|


--------------7-----7--7----|----------------------------|
--------5-----5-------------|--------7-----7--7-----x----|
--------6-----6-------------|--------------8--8----------|
-----6--------x-------------|--------------x-----x-------|
--4-------------------------|----------------------------|
----------------------------|--7-------------------------|


-----------------------0----|----------------------------|
--------------0-------------|--------5-----5--------5----|
--8-----8-----8-----8-------|--------4-----4-----x--4----|
--------------x-------------|-----6--------x-----x--6----|
----------------------------|----------------------------|
----------------------------|--0-------------------------|


--------------4-----4--4----|----------------------------|
--------5-----5-----5-------|--------7-----7--7----------|
--------4-----4-----4-------|--------5-----5--5----------|
-----6--------x-------------|--------------x--------6----|
----------------------------|----------------------------|
--0-------------------------|--4-----------------4-------|


--------------------4--4----|--------------4g------------|
--7-----7-----7-----4-------|--------5-----5--------5----|
--5-----5-----5-----5-------|--------6-----6-----x-------|
--------------x-------------|-----6--------x-----x-------|
----------------------------|--4-------------------------|
--4-------------------------|----------------------------|

                                                ^
----------------------------|----------------|----------------|-------------|
--------5-----5-----5--5----|----------------|----------------|-------------|
--------6-----6-------------|-----5L-5L-5----|--7--7-----9L---|--9--9-------|
-----6--------x-------------|-----5L-5L-5----|--7--7-----7L---|--7--7-------|
--4-------------------------|----------------|--------x-------|-------------|
----------------------------|--8-------------|--10------------|-------------|

  ^
-------||
--5----||
--4----||
--6----||
--7----||
-------||
Добавлено: 18.10.2013
Другие материалы по этой песне:

Страница создана 18.03.2012
http://primanota.ru/sungha-jung/lonely-chords.htm
Привет, Гость.
Предлагаем пройти революционный курс по гитаре.
Подарок от PrimaNota.Ru, забирай!