PrimaNota.ru - самый крупный в мире бесплатный архив песенных текстов, аккордов, табулатур и нот


Sungha Jung - Can I Love You - таба, видео

Регистрация Запомнить меня
Войти через:  Facebook Google Twitter Vk Yandex Mail.ru

Sungha Jung - Can I Love You - таба, видео

Печатать
Просмотров: 324
Can I Love You
(Yurisangja)                                
Sungha Jung
yuji812

     Q    Q    Q    E  S S    E.  S S T  T S S   E.  S S S S S  
E||------------------------|--0-----0-1p-0-----0g2---------0---|
B||------------------------|--------3------3-----3-----------3-|
G||----------------------2-|--------2--------------------------|
D||------------------------|-----------------------------------|
A||------------------------|--------x------------------x-------|
D||------------------------|--0---0-x--------0-------0-x-0-----|


  E.  S S S S S E  S S S S S S    E  S S E  S S E  S S S S S  S  
--0-----0---2------------------|------------0--------------2h-5-|
-------------------------------|-----0---3----3-----------------|
--------------2--------------2-|-----0---0-----------0----------|
---------------------0-----0---|--------------------------------|
--------x--------------x-------|---------x-------------x--------|
--4---4-x-4-----4--4---x-4-----|--5----5-x------5--5---x-5------|


               ^                                                                
  E  S S S  S  E  H           Q    E  S  S     S S S S S S S   Q    S S S S  S  
--5--3---2-----0--L--------|----------------|----------------------------------|
---------------0--L--------|----------------|----------------------------------|
---------------------------|----------------|----------------------------------|
---------------------------|----------------|--2-2-2-2-------2g4----L-----2p-0-|
---------------0--L--------|--0----L--L-(0)-|----------x---5----------x--------|
--2----2---(0)-------------|----------------|--0-------x-0----------0-x-0------|


  E  S S S S S E.  S  S S S  S  S    E   S  S S E  S E  S  S S E  S  
----------------------------------|---------------------------------|
--------------------------------0-|---------------------------------|
--------------------------2-------|---------0-----------------------|
--2----2-----4-4---4s-5-L---------|-----(0)----------4--2p-0--------|
---------x--------------x---------|-----------x--------------x-0----|
--4--4---x-4------------x---(4)---|--5--------x-5--5---------x----0-|


  E  E  E  Q    S  E    S  S S    E  S S S S S   Q    S S S S  S  
-------------------------------|---------------------------------|
-------------------------------|---------------------------------|
------------------(2)----------|---------------------------------|
--0--4-----2----L------(2)-----|--2----2-------2g4----L-----2p-0-|
--------x--0----L----------x-0-|---------x---5----------x--------|
--2-----x------------------x---|--0--0---x-0----------0-x-0------|


  E  S S S S S  E  E    E  S  S  S    E  S S S E  S E  S S S S  S S  
-----------------------------------|--------------------------------|
-----------------------------------|--------------------------------|
-------------------2---------------|------------------------------2-|
--2----2-----4s-5-----4g5--4p-2p-0-|-------0--------0----0---2h-4---|
---------x-------------------------|---------x---------4---x--------|
--4--4---x-4-----------------------|--5--5---x-5--5--------x--------|


  E  E  S S   S S E.   S  S  S  S S    E  S S S S  S S S E  S  S S S S  
------------------------------------|----------------------------------|
----------------------------------0-|-----------0h-3-2---2--2h-3---2-3-|
----------0-------------------------|-------0--------------------0-----|
------------2g4-2-----(0)-0h-2p-0---|-----0----------------------------|
--------x---------0-----------------|---------x----------------x-------|
--2--2--x---------------------------|--5------x--------4-------x-------|


  E  S S S S S S E  S S S S S S    S  S S S S S S S E  S  S S E  S  
-----------------2----0---2-----|-----------------------------0--2-|
-----------------3------------3-|--Lh-0-------------0--2h-3------3-|
-------2-------0-2--------------|---------0-------0----------------|
-----0-------0------0-------0---|-------0-------0------------------|
--2------x-2------------x-------|-----------x---------------x------|
---------x-------0------x-------|--5--------x-5-----2-------x------|


  E   S S S S S S E  S S S S S S      E  E    S S Q    S S S S S S  
--Lh--0-----0---0----------------|--2g3--2--5g7---5----L-------2-2-|
--------3-------2------2-------2-|----------------0----L-----3-3-3-|
-----------------------------0---|----------------6----L-2-2-------|
---------------------------------|----------------7----L-----------|
--0-------x-------0--0---x-0-----|----0-----------0----L-----------|
----------x--------------x-------|---------------------------------|


  E  S S S S S  S E  S S S S S S    S S S S S S  S S E  S S S S S S  
-------------2p-0----------------|------------0h-2-2----------------|
-----------3-----------0---------|--3-----3---------------3---------|
-------2---------------0-------0-|------4---------------------2-----|
-----0---------------2-------2---|----0-----------------0---------0-|
---------x---------------x-------|----------x---------------x---0---|
--0------x--------2------x-2-----|--5-------x--------0------x-------|


  S  S  S  S S S  S   S  S E  S S S S S    S S S S S S S S E  S S S S S S  
--------------------------------------2-|------0-----0---0------------2-2-|
--0-----2h-3---3------6----5--3---------|--------3-------0----------0-----|
--0---------------------------2---2-----|----0------------------2---------|
----(0)--------------(0)----------------|---------------------2-----------|
-------------x---(x)------------2---x---|----------x-------0------x-------|
--5----------x---(x)-----4----------x---|--5-------x--------------x-------|


                                                           |--3--|   
  E  S S S S S  S E  S S S S S S    E  S S S  S S S E  S S E  E  E   
-------------2p-0--------------7-|-----5-2-Lh-0---------------0--2--|
-----------3-----------0---3-x---|----------------3--------3--------|
-------2---------------0---------|-----------------------2-2--------|
-----0---------------2-----------|--------------0------0------------|
---------x---------------x---x---|---------x--------2------x--------|
--0------x--------2------x---x---|--4------x---------------x--------|


  E   S S S S E  E  S S  S  S  S S    E  S S  S  S  S S S S S S S S S S  
--2p--0-0--------------------------|------------------2-----------------|
--0---------3-3---------(3)-2p-0---|--0------(0)-2s-3-------2-2-----3-3-|
--------------0-------0-(0)------2-|-------0-(0)------------------------|
--------------------0---(0)--------|-----2---(2)----------2-------2-----|
----------x--------------x---------|----------x---------0-------x-------|
--5-------x------5-------x---------|--2-------x-----------------x-------|


  E  S S S S S S E  S S E.  S    E.  S S T  T S S   E.  S S S   S S  
---------------0--------x-----|--0-----0-1p-0-----0g2---------2g0---|
-----------3----------3-x-----|--------3------3-----3-------------3-|
-------2--------------2-x---2-|--------2----------------------------|
-----0-------0------0---x-----|-------------------------------------|
---------x--------------x-----|--------x------------------x---------|
--0------x-------0------x-----|--0---0-x--------0-------0-x-0-------|


  E.  S S S S S E  S S S S  S  S    E  S S E  S S E  S S S S S  S  
--0-----0---2--------------------|------------0--------------2h-5-|
---------------------------------|-----0---3----3-----------------|
--------------2------------------|-----0---0-----------0----------|
---------------------0-----(0)---|-------------------0------------|
--------x--------------x---------|---------x-------------x--------|
--4---4-x-4-----4--4---x-4-----4-|--5----5-x------5------x-5------|


               ^                                                     
  E  S S S  S  Q    S S S  S  S S    E  S S S S  S S S E  S S S S S  
--5--3---2-----0----L-------------|-----------------------2---------|
---------------0----L-----------0-|-----------0h-3-2---2--------2-3-|
----------------------------------|-------0-------------------------|
----------------------0-0h-2p-0---|-----0---------------------------|
---------------0----L-------------|---------x---------------x-------|
--2----2---(0)--------------------|--5------x--------4------x-4-----|


  E  S S S S S S E  S S S S S S    S  S S S S S S S E  S  S S E  S  
-----------------2----0---2-----|-----------------------------0--2-|
-----------------3------------3-|--Lh-0-------------0--2h-3------3-|
-------2-----2---2--------------|---------0-----0------------------|
--------------------0-------0---|-------0-----0--------------------|
--2--2---x-2---0--------x-------|-----------x---------------x------|
---------x-------0------x-------|--5--------x-----0-2-------x------|


  S S   S S S S S S E  S S S S S S      E  E    S S Q    S S S S S S  
------2g0-----0---0----------------|--2g3--2--5g7---5----L-------2-2-|
----------3-------2------2-------2-|----------------0----L-----3-3-3-|
-----------------------------------|----------------6----L-2-2-------|
-----------------------2-------2---|----------------7----L-----------|
--0-0-------x-------0------x-0-----|----0-----------0----L-----------|
------------x--------------x-------|---------------------------------|


  E  S S S S S  S E  S S S S S S    S S S S S S  S S E  S S S S S S  
-------------2p-0----------------|------------0h-2-2----------------|
-----------3-----------0---------|--3-----3--------3------3---------|
-------2---------------0-------0-|------4---------------------2-----|
-----0---------------2-------2---|----0-----------------0---------0-|
---------x---------------x-------|----------x---------------x---0---|
--0------x--------2------x-2-----|--5-------x--------0------x-------|


  S  S  S  S S S  S   S  S E  S S S S S    S S S S S S S S E  S S S S S S  
--------------------------------------2-|------0-----0---0------------2-2-|
--0-----2h-3---3------6----5--3---------|--------3-------0----------0-3-3-|
--0---------------------------2---2-----|----0------------------2---------|
----(0)--------------(0)----------------|---------------------2-----------|
-------------x---(x)------------2---x---|----------x---x---0------x-------|
--5----------x---(x)-----4----------x---|--5-------x---x----------x-------|


                                                              |--3--|   
  E  S S S S S  S E  S S S S  S  S    E  S S S   S S S E  S S E  E  E   
-------------2p-0----------------7-|-----5-2---2g0---------------0--2--|
-----------3-----------0---3-------|-----------------3--------3--------|
-------2---------------0-----(0)---|------------------------2-2--------|
-----0---------------2-------------|---------------0------0------------|
---------x---------------x---------|---------x---------2------x--------|
--0------x--------2------x---------|--4------x----------------x--------|


  E   S S S S E  E  S S  S  S  S S    E   S S S E  S E  S S S S S S  
--2p--0-0--------------------------|--------0---2--0------------2-2-|
--0---------3-3---------(3)-2p-0---|--0h--3-3---3--2----------0-3-3-|
--------------0-------0-(0)------2-|----------------------2---------|
--------------------0---(0)--------|--------------------------------|
----------x--------------x---------|----------x------0--0---x-------|
--5-------x------5-------x---------|--2-------x-------------x-------|


  E  S S S S S  S E  S S S S S S    S S S S S S  S S E  S S S S S S  
-------------2p-0----------------|------------0h-2-2----------------|
-----------3-----------0---------|--3-----3--------3------3---------|
-------2---------------0-------0-|------4---------------------2-----|
-----0---------------2-------2---|----0-----------------0---------0-|
---------x---------------x-------|----------x---------------x---0---|
--0------x--------2------x-2-----|--5-------x--------0------x-------|


  S  S  S  S S S  S   S  S E  S S S S S    S S S S S S S S E  S S S S E   
--------------------------------------2-|------0-----0---0------------3--|
--0-----2h-3---3------6----5--3---------|--------3-------0----------0-3--|
--0---------------------------2---2-----|----0---0-------2------2---0-2--|
----(0)--------------(0)----------------|---------------------2----------|
-------------x---(x)------------2---x---|----------x---x---0------x------|
--5----------x---(x)-----4----------x---|--5-------x---x----------x------|


                                                              |--3--|   
  S E  S S S S  S E  S S S S  S  S    E  S S S   S S S E  S S E  E  E   
----2--------2p-0----------------7-|-----5-2---2g0---------------0--2--|
----3------3-----------0---3-------|-----------------3--------3--------|
-------2---------------0-----(0)---|------------------------2-2--------|
---------------------2-------------|---------------0------0------------|
---------x---------------x---------|---------x---------2------x--------|
--0------x--------2------x---------|--4------x----------------x--------|


  E   S S S S E  E  S S  S  S  S S    E  S S  S  S  S S S S S S S S S S  
--2p--0-0--------------------------|------------------2-----------------|
--0---------3-3---------(3)-2p-0---|--0------(0)-2s-3-------2-2-----3-3-|
--------------0-------0-(0)------2-|-------0-(0)----------------------2-|
--------------------0---(0)--------|-----2---(2)----------2-------2-----|
----------x--------------x---------|----------x---------0-------x-------|
--5-------x------5-------x---------|--2-------x-----------------x-------|


  E  S S S S S S E  S S S S  S S    E  S S  S  S  S S S  S S S S S S S  
-------0-------------------------|------------------2-Lh-0-----------2-|
---------------3--------3-2p-0---|--0------(0)-2s-3--------2-----------|
-----------2----------2--------2-|-------0-(0)-------------2-----------|
-----0-------0------0------------|-----2---(2)---------------------2---|
---------x-----------------------|----------x---------0------0-x-0-----|
--0------x-------0---------------|--2-------x------------------x-------|


  E  S S S S S S E  S S  S  S S S    E  S S S S S S E  S S S S S S  
----------------------------------|-------0--------------0---------|
-----2---------2--------(2)-----3-|--3------------3--------------3-|
------------------------(0)-------|--2--------2--------2-----2-----|
-----2-------2--------2-------2---|-----0-------0--------------0---|
--0----0-x-0-----0--0----x--0-----|---------x--------------x-------|
---------x---------------x--------|--0------x-------0------x-------|


                  ^                              
  E  S S S S E    H           W                  
-------0----------9--------|--L----------------||
-----------3-L/--10--------|--L----------------||
------------------9--------|--L----------------||
-----0-------0----0--------|--L----------------||
---------x-----------------|-------------------||
--0------x-----------------|-------------------||




Duration Legend
---------------
W - whole
H - half
Q - quarter
E - 8th
S - 16th
T - 32nd
X - 64th
. - note dotted
|-n-|  - n-tuplets


Tablature Legend
----------------
L - tied note
x - dead note
g - grace note
(n) - ghost note
> - accentuded note
NH - natural harmonic
AH - artificial harmonic
TH - tapped harmonic
SH - semi harmonic
PH - pitch harmonic
h - hammer on
p - pull off
b - bend
br - bendRelease
pb - preBend
pbr - preBendRelease
brb - bendReleaseBend
\n/ - tremolo bar dip
\n - tremolo bar dive
-/n - tremolo bar Release up
/n\ - tremolo bar inverted dip
/n - tremolo bar return
-\n - tremolo bar Release down
S - shift slide
s - legato slide
/ -  slide into from below or out of upwards
\ -  slide into from above or out of downwards
~ - vibrato
W - wide vibrato
tr - trill
TP - tremolo picking
T - tapping
S - slap
P - pop
< - fade in
^ - brush up
v - brush down
Добавлено: 01.12.2013
Другие материалы по этой песне:

Страница создана 18.07.2013
http://primanota.ru/sungha-jung/can-i-love-you-chords.htm
Привет, Гость.
Предлагаем пройти революционный курс по гитаре.
Подарок от PrimaNota.Ru, забирай!