PrimaNota.ru - самый крупный в мире бесплатный архив песенных текстов, аккордов, табулатур и нот


Sungha Jung - Call Me Maybe - таба, видео

Регистрация Запомнить меня
Войти через:  Facebook Google Twitter Vk Yandex Mail.ru

Sungha Jung - Call Me Maybe - таба, видео

Печатать
Просмотров: 431
-------------------------------------------------------------------------------
                                 Call Me Maybe 
-------------------------------------------------------------------------------


Tuning: Standard (eBGDAE)


Intro 

|-----------------------------------------------------------|
|-----------------------------------------------------------|
|------------------------------0----0----0---0--0--0--0--0--|
|--2--2--2--2--2--2--2--2------2----2----2---2--2--2--2--2--|
|--3--3--3--3--3--3--3--3------3----3----3---3--3--3--3--3--|
|-----------------------------------------------------------|


Verse

|-----------------------------------------------------------|
|--------0--0--0--0--0-----0---------0--0--0--0--0-----0----|
|-----------0-----------2---------------2-----------2-------|
|---(2)---------------------------0-----------0-------------|
|----3------------3-----------------------------------------|===
|-----------------------------------------------------------| ====\
                                                                    2 Times
|-----------------------------------------------------------| ====/
|-------0--0--0--0--0--(0)------------------------3----0----|==
|----------------------(2)--2--------2--2-----0-------------|
|----------------------(2)--------0--------0----------------|
|--2g3-----------3------------------------------------------|
|-----------------------------------------------------------|


Pre Chorus
    
|-----------------------------------------------------------------|
|----------3-----3p-0----------------3-----3-----3p-0-------------|
|----------0-----------2---0---------2-----2-----------2---0------|
|-------2--2------------------(0)----0--0-----0---------------(0)-|
|--2g3--------3---------------------------------------------------|
|------------------------------------------------0----------------|
 
|--------------------------------3--3--3--2--3--2--3s-5--7---|
|--3-----3-----3p-0-----------------3--3-----3---------------|
|--0-----0-----------2----0------------0---------------------|
|-----2--2-----0---------------------------------------------|
|--3--------0------------------------------------------------|
|--------------------------------0---------------------------|


Chorus
 
|---------3-----------3-----------------3-----------7----------|
|---------3-----0h-3--------3-----------3-----0h-3----------8--|
|------0--0-----0-----------2--------2--2-------------------9--|
|-------------------------0----------------0------------(0)----|
|---3--------3-------------------------------------------------|
|--------------------------------------------------------------|

|--------7------7--8s--7----------------------7-----------3----|
|--------8----------------8------------8------8--10--(0)-------|
|-----9--9----9---------------------7--7----7--------(0)-------|
|--------------------------------0--------0--------------------|
|--------------------------------------------------------------|
|--8--------8--------------------------------------------------|
  
|--------3-----------3------------------3------------3g7-------|
|--------3-----0h-3--------3------------3-----0h--3------------|
|-----0--0-----------------2---------2--2----------------------|
|------------------------0-----------------0--------------0----|
|--3--------3--------------------------------------------------|
|--------------------------------------------------------------|

|---------------7--8s---7----------------------7-----------3---|
|-----8----------------(0)--8-----------8------8--10--(0)------|
|-----9-------9--------(0)-----------7--7----7--------(0)------|
|---------------------------------0--------0-------------------|
|--------------------------------------------------------------|
|--8--------8--------------------------------------------------|

|---------3-----------3-----------------3-----------7----------|
|---------3-----0h-3--------3-----------3-----0h-3----------8--|
|------0--0-----0-----------2--------2--2-------------------9--|
|-------------------------0----------------0------------(0)----|
|---3--------3-------------------------------------------------|
|--------------------------------------------------------------|

|--------7------7--8s--7----------------------7-----------3----|
|--------8----------------8------------8------8--10--(0)-------|
|-----9--9----9---------------------7--7----7--------(0)-------|
|--------------------------------0--------0--------------------|
|--------------------------------------------------------------|
|--8--------8--------------------------------------------------|
  
|--------3-----------3------------------3------------3g7-------|
|--------3-----0h-3--------3------------3-----0h--3------------|
|-----0--0-----------------2---------2--2----------------------|
|------------------------0-----------------0--------------0----|
|--3--------3--------------------------------------------------|
|--------------------------------------------------------------|

|---------------7--8s---7----------------------7---------------|
|-----8----------------(0)--8-----------8------8--10--(0)--8---|
|-----9-------9--------(0)-----------7--7----7--------(0)------|
|---------------------------------0--------0-------------------|
|--------------------------------------------------------------|
|--8--------8--------------------------------------------------|



Post Chorus - Fill
 
|--------7-------------------------------------------|
|--------8--------8-----8--------------------8-------|
|-----9-----------9--------------9-----------9-------|
|----------------------------------------------------|
|----------------------------------------------------|
|--8--------8--------------------------8-------------|



Bridge

    
|-----7--(7)-----------------------------------3g5----3-----|
|-----8--(8)--10--10p--8-----3--------3-----3--3g5----3-----|
|--------(9)---9---9---------2--------2---------------2-----|
|----------------------------------0-------------0-------0--|
|-----------------------------------------------------------|
|--8---------------8----------------------------------------|

|--------------3g5-----3--------------------3g5-----3g5-----|
|-----3-----3--3g5-----3-----------3-----3--3g5-----3g5-----|
|-----0-----0----------2-----------2-------------0----------|
|-------------------0-----0-----0-------------0----------0--|
|--3--------------------------------------------------------|
|-----------------------------------------------------------|

|--------7-----------------------------------3g5----3-------|
|--------8--10--10p--8-----8--------3-----3--3g5----3-------|
|-----9------9---9---------9--------2---------------2-------|
|--------------------------------0-------------0------------|
|------------------------------------------------------0----|
|--8-------------8------------------------------------------|

|--------------3g5-----3--------------------3g5-----3g5-----|
|-----3-----3--3g5-----3-----------3-----3--3g5-----3g5-----|
|-----0-----0-------0--2-----------2-----2-------0----------|
|-------------------------0-----0-------------0----------0--|
|--3--------------------------------------------------------|
|-----------------------------------------------------------|

|--3-------------------7--------\--2--2----(2)--------3-----|
|--3----3--3-----------------------3--3----(3)--------3-----|
|--0----0--------0--------------------2---------2-----0-----|
|-------2--------------0------------------------------------|
|--3---------------------------------------(-)--------3-----|
|------------------------------------------(-)--------------|

|-----0--0---------------7------\--2--2----(2)----(2)-------|
|-----3--3----(3)------------------3--3----(3)----(3)-------|
|--------0----(0)--0------------------2---------------------|
|-------------(2)--------0----------------------------------|
|-----3--3---------------------------------(-)----(-)-------|
|------------------------------------------(-)----(-)-------|


Outro

|-----7--(7)-----------------------------------3g5----3-----|
|-----8--(8)--10--10p--8-----3--------3-----3--3g5----3-----|
|--------(9)---9---9---------2--------2---------------2-----|
|----------------------------------0-------------0-------0--|
|-----------------------------------------------------------|
|--8---------------8----------------------------------------|

|--------------3g5-----3--------------------3g5-----3g5-----|
|-----3-----3--3g5-----3-----------3-----3--3g5-----3g5-----|
|-----0-----0----------2-----------2-------------0----------|
|-------------------0-----0-----0-------------0----------0--|
|--3--------------------------------------------------------|
|-----------------------------------------------------------|

|--------7-----------------------------------3g5----3-------|
|--------8--10--10p--8-----8--------3-----3--3g5----3-------|
|-----9------9---9---------9--------2---------------2-------|
|--------------------------------0-------------0------------|
|------------------------------------------------------0----|
|--8-------------8------------------------------------------|

|--------------3g5-----3--------------------3g5-----3g5-----|
|-----3-----3--3g5-----3-----------3-----3--3g5-----3g5-----|
|-----0-----0-------0--2-----------2-----2-------0----------|
|-------------------------0-----0-------------0----------0--|
|--3--------------------------------------------------------|
|-----------------------------------------------------------|

|--3-------------------7--------\--2--2----(2)--------3-----|
|--3----3--3-----------------------3--3----(3)--------3-----|
|--0----0--------0--------------------2---------2-----0-----|
|-------2--------------0------------------------------------|
|--3---------------------------------------(-)--------3-----|
|------------------------------------------(-)--------------|

|-----0--0---------------7------\--2--2---------2---------0--|
|-----3--3----(3)------------------3--3-----3---3---3-----3--|
|--------0----(0)--0------------------2-----2---2---2-----0--|
|-------------(2)--------0------------------0-------0-----2--|
|-----3--3------------------------------------------------3--|
|------------------------------------------------------------|


*******************************************************************

(n) - ghost note
/   slide up
\   slide down
h   hammer-on
p   pull-off
Добавлено: 16.09.2013
Другие материалы по этой песне:

Страница создана 07.08.2013
http://primanota.ru/sungha-jung/call-me-maybe-chords.htm
Привет, Гость.
Предлагаем пройти революционный курс по гитаре.
Подарок от PrimaNota.Ru, забирай!