PrimaNota.ru - самый крупный в мире бесплатный архив песенных текстов, аккордов, табулатур и нот


Sundays - Youre Not The Only One - аккорды и текст, таба, видео

Регистрация Запомнить меня
Войти через:  Facebook Google Twitter Vk Yandex Mail.ru

Sundays - Youre Not The Only One - аккорды и текст, таба, видео

Печатать
Просмотров: 106
Youre Not The Only One
Sundays
		   youÕre not the only one that I know
					by The SUNDAYS

capo on second fret

Intro:
	F7M/C    C7M/G    F7M/C    Am7/E

            F7M/C                C7M/G  
where's the harm in voicing your doubt
       F7M/C                C7M/G  
you'll find me in the lavatory
                F7M/C               C7M/G  
and where's the harm in talking out loud
     F7M/C     C7M/G  
when I'm on my own

          F7M/C                 C7M/G  
what's so wrong with reading my stars
     F7M/C              C7M/G  
when I'll be in the lavatory
               F7M/C                   C7M/G  
and what is so wrong with counting the cards
     F7M/C     C7M/G  
when I'm all alone

Am7/E               F7M/C    C7M/G  
you're not the only one that I know
    F7M/C  
but I'm too proud to talk to you anyway
Am7/E               F7M/C    C7M/G  
you're not the only one that I know
    F7M/C  
but I'm far too proud to talk to you any day

     C7M/G  
so I say
       F7M/C         C7M/G  
I'm in love with the world
               F7M/C                   C7M/G  
and what is so wrong with voicing your doubt
     F7M/C     C7M/G  
when I'm on my own

               F7M/C              C7M/G  
it's perfectly fine to sleep in a chair
     F7M/C            C7M/G  
from Monday 'til Saturday
               F7M/C                  C7M/G  
and what is so wrong with talking out loud
     F7M/C     C7M/G  
when I'm all alone

Am7/E	              F7M/C    C7M/G  
you're not the only one that I know
    F7M/C  
but I'm too proud to talk to you anyway
Am7/E	              F7M/C    C7M/G  
you're not the only one that I know
    F7M/C  
but I'm far too proud to talk to you any day

[Instrumental]

        Am7/E                F7M/C  
so they rode out west to the seaside
                           C7M/G  
and they gladly decided to stay
          Am7/E               F7M/C  
but after two hours wandering outside
        C7M/G              F7M/C  
ooh the sea air drove them away, yeah

Am7/E	              F7M/C    C7M/G  
you're not the only one that I know
    F7M/C  
but I'm too proud to talk to you anyway
Am7/E               F7M/C    C7M/G  
you're not the only one that I know
    F7M/C  
but I'm far too proud to talk to you any day

Am7/E	         F7M/C    C7M/G  
you're not the only one
        F7M/C  
but I'm far too proud you're so
Am7/E	      F7M/C      C7M/G  
you're, oh, you're but I know, I know, I know, I know
    F7M/C  
I'm far too proud to talk to you any day
    C7M/G      F7M/C  
but if you do, don't you know
     C7M/G         F7M/C   C7M/G   F7M/C  
that I don't mind, no,     no,     no


Chord Shapes:

F7M/C    C7M/G      Am7/E

--0---------0---------3---------------
--1---------0---------1---------------
--2---------0---------0---------------
--3---------2---------2---------------
--3---------3-----------------------
------------3-----------------------

Instrumental:
-------------0-------0-------------------------------------------------
------0----3---3---3---3-----------------------------------------------
----0------------0-------0---------------------------------------------
--2------------------------3-------------------------------------------
-----------------------------------------------------------------------
-----------------------------------------------------------------------

-----------------------------------------------------------------------
------1-0-1-0-------1-0-1-0--------------------------------------------
----0---------0---0---------0------------------------------------------
--2-------------2-------------2----------------------------------------
-----------------------------------------------------------------------
-----------------------------------------------------------------------     
Добавлено: 19.10.2013
Другие материалы по этой песне:
  • Аккорды и текст

Страница создана 10.05.2012
http://primanota.ru/sundays/youre-not-the-only-one-chords.htm
Привет, Гость.
Предлагаем пройти революционный курс по гитаре.
Подарок от PrimaNota.Ru, забирай!