PrimaNota.ru - самый крупный в мире бесплатный архив песенных текстов, аккордов, табулатур и нот


Sundays - Skin & Bones - текст песни, таба, видео

Регистрация Запомнить меня
Войти через:  Facebook Google Twitter Vk Yandex Mail.ru

Sundays - Skin & Bones - текст песни, таба, видео

Печатать
Просмотров: 125
Авторы: David Gavurin, Harriet Wheeler

The Sundays, Skin & Bones
Effects: chorus, some delay (but too many repeats), reverb to make it lush

~ = let these notes ring
||--------------|--------------|-----------------|--------------||
||--------------|--------------|-----------------|--------------||
||---2~---------|---0-0-0-0----|---2~------------|-/8-8-8-8-----||
||--3~----------|--3-3-3-3-3~--|--3~-------------|-/9-9-9-9-----||
||--------------|--------------|-----------------|--------------||
||--------------|--------------|-----------------|--------------||

||--------------|--------------|-----------------|--------------||
||--------------|--------------|-----------------|--------------||
||---2~---------|---0-0-0-0----|---2~------------|-/8-8-8-8-----||
||--3~----------|--3-3-3-3-3~--|--3~-------------|-/9-9-9-9-----||
||--------------|--------------|-----------------|--------------||
||--------------|--------------|-----------------|--------------||

||--------------|1~------------|-----------------|--------------||
||--------------|3~------------|-----------------|-8-8-8-8-8~---||
||-\2~----0~----|3~-----3~-----|---2~------------|--8-8-8-8-8~--||
||-\3~----2~----|-------3~-----|--3~-------------|--------------||
||--------------|--------------|-----------------|--------------||
||--------------|--------------|-----------------|--------------||

||--------------|--------------|-----------------|--------------||
||--------------|---softly-----|-----------------|--------------||
||---2~---------|--------------|---2~------------|-/8-8-8-8-----||
||--3~----------|--2---2---2--2|--3~-------------|-/9-9-9-9-----||
||--------------|--3---3---3--3|-----------------|--------------||
||--------------|1---1---1---1-|-----------------|--------------||

||--------------|1~------------|-----------------|--------------||
||--------------|3~------------|-----------------|-----8----8---||
||-\2~----0~----|3~-----3~-----|---2~------------|----8-8-8-----||
||-\3~----2~----|-------3~-----|--3~-------------|---7---7-7----||
||--------------|--------------|-----------------|--8-----------||
||--------------|--------------|-----------------|--------------||


||---8-8----8-8-|---8-8----8-8-|----8-8----8-8---|--8-8----8-8--||
||--------------|--------------|-----------------|--------------||
||--7—7h8--7-7h8|--7—7h8--7-7h8|---7—7h8--7-7h8--|-7—7h8--7-7h8-||
||--------------|--------------|-----------------|--------------||
||--------------|--------------|-----------------|--------------||
||--------------|--------------|-----------------|--------------||

||---8-8----8-8-|---8-8----8-8-|----8-8----8-8---|--8-8----8-8--||
||--------------|--------------|-----------------|--------------||
||--7—7h8--7-7h8|--7—7h8--7-7h8|---7—7h8--7-7h8--|-7—7h8--7-7h8-||
||--------------|--------------|-----------------|--------------||
||--------------|--------------|-----------------|--------------||
||--------------|--------------|-----------------|--------------||

||--------------|--------------|-----------------|--------------||
||--------------|--------------|-----------------|--------------||
||---2~---------|--------------|---2~------------|-/8-8-8-8-----||
||--3~----------|--2---2---2--2|--3~-------------|-/9-9-9-9-----||
||--------------|--3---3---3--3|-----------------|--------------||
||--------------|1---1---1---1-|-----------------|--------------||

||--------------|1~------------|-----------------|--------------||
||--------------|3~------------|-----------------|-----8----8---||
||-\2~----0~----|3~-----3~-----|---2~------------|----8-8-8-----||
||-\3~----2~----|-------3~-----|--3~-------------|---7---7-7----||
||--------------|--------------|-----------------|--8-----------||
||--------------|--------------|-----------------|--------------||

bridge
||--------------|--------------|-----------------|--------------||
||----8-6-------|-------8-6----|-----------------|--------------||
||---8-8-8------|----8---8-8---|------ repeat----|----- repeat -||
||--7-----7-----|---7----------|-----------------|--------------||
||-8------------|--------------|-----------------|--------------||
||--------------|--------------|-----------------|--------------||
    2nd guitar – let ring
||--------------|--------------|-----------------|--------------||
||--------------|--------------|-----------------|--------------||
||--------------|--------------|--0-2-3—5~ ------|--------------||
||--------------|--------------|-----------------|--------------||
||--------------|--------------|-----------------|--------------||
||--------------|--------------|-----------------|--------------||

    here's the special chord around 3:15 and again at 3:27
||--0-----------|--------------|-----------------|-0-----17-15--||
||--1-----------|--------------|-----------------|-1--15--------||
||--0-----------|--2---0-0—0-0-|---2---0-0—0-0---|-0------------||
||--3-----------|-3---3-3-3-3--|--3---3-3-3-3----|-3------------||
||--3-----------|--------------|-----------------|-3------------||
||--------------|--------------|-----------------|--------------||

those are pretty much all the parts. you can figure out the timing and number of repeats 
for everything. Enjoy!
Добавлено: 27.09.2013
Другие материалы по этой песне:
  • Аккорды и текст

Страница создана 09.07.2012
http://primanota.ru/sundays/skin-and-bones-chords.htm
Привет, Гость.
Предлагаем пройти революционный курс по гитаре.
Подарок от PrimaNota.Ru, забирай!