PrimaNota.ru - самый крупный в мире бесплатный архив песенных текстов, аккордов, табулатур и нот


Sundays Best - Gothic desert - таба, видео

Регистрация Запомнить меня
Войти через:  Facebook Google Twitter Vk Yandex Mail.ru

Sundays Best - Gothic desert - таба, видео

Печатать
Просмотров: 86


Riff 1

E:-------------|
B:-------------|
G:-------------|
D:-------------|           3x times
A:-------------|
E:4-6-4-6-5-4---|


Riff End

E:---------------------|
B:---------------------|
G:---------------------|
D:---------------------|
A:-------6-5-4----------|
E:4-6-5-4-------6-4-6----|

Repeat riff 1 and riff end 4x.

Main Riff

E:---------------|
B:---------------|
G:---------------|
D:---------------|
A:4-6-4-6-5-4-----|
E:4-6-4-6-5-4-----|

Main Riff End

E:--------------------
B:--------------------
G:--------------------
D:--------------------
A:4-6-5-4--6-5-4----6-4-6
E:4-6-5-4--4-3-2----6-4-6

Repeat Main riff 1 and main riff end 10x times.


Добавлено: 26.01.2014
Другие материалы по этой песне:
  • Аккорды и текст

Страница создана 26.01.2014
http://primanota.ru/sundays-best/gothic-desert-chords.htm
Привет, Гость.
Предлагаем пройти революционный курс по гитаре.
Подарок от PrimaNota.Ru, забирай!