PrimaNota.ru - самый крупный в мире бесплатный архив песенных текстов, аккордов, табулатур и нот


Sunday Secret - Nightmare - бас-таба, видео

Регистрация Запомнить меня
Войти через:  Facebook Google Twitter Vk Yandex Mail.ru

Sunday Secret - Nightmare - бас-таба, видео

Печатать
Просмотров: 31
-------------------------------------------------------------------------------
                             NIGHTMARE - Sunday Secret
-------------------------------------------------------------------------------
Tabbed by: DeathOverYou
E-mail: wevegotalotofhistory@gmail.com

Tuning:Drop D

G|---------------------------------------------------------------------------|
D|---------------------------------------------------------------------------|
A|---------------------------------------------------------------------------|
D|--0--0/8--7--8--10--0--0/8--7--8--10--0--0/8--7--8--10--0--0/8--7--3--5----|  x2

G|---------------------------------------------------------------------------|
D|---------------------------------------------------------------------------|
A|--------1--0--1--3--------1--0--------------1--0--1--3--------1--0---------|
D|--0--0--------------0--0--------3--5--0--0--------------0--0--------3--5---|  x2

*Pause, come in at 1:15

G|---------------------------------------------------------------------------|
D|---------------------------------------------------------------------------|
A|---------------------------------------------------------------------------|
D|--0--0/8--7--8--10--0--0/8--7--8--10--0--0/8--7--8--10--0--0/8--7--3--5----|  x2

G|---------------------------------------------------------------------------|
D|---------------------------------------------------------------------------|
A|--------1--0--1--3--------1--0--------------1--0--1--3--------1--0---------|
E|--0--0--------------0--0--------3--5--0--0--------------0--0--------3--5---|  x2

G|------------------------------------|
D|------------------------------------|
A|------------------------------------|
E|--0-00-0-0-3-0-0-5-0-0-3-0-0-5-6----|  x6

G|---------------------------------------------------------------------------|
D|---------------------------------------------------------------------------|
A|--------1--0--1--3--------1--0--------------1--0--1--3--------1--0--x-x-x-x|
E|--0--0--------------0--0--------3--5--0--0--------------0--0--------x-x-x-x|

G|---------------------------------------------------------------------------|
D|---------------------------------------------------------------------------|
A|--------1--0--1--3--------1--0--------------1--0--1--3--------1--0---------|
E|--0--0--------------0--0--------3--5--0--0--------------0--0--------3--5---|

===============================================================================
| /  slide up
| \  slide down
| h  hammer-on
| p  pull-off
| ~  vibrato
| +  harmonic
| x  Mute note
===============================================================================
Добавлено: 01.01.2016
Другие материалы по этой песне:
  • Аккорды и текст

Страница создана 01.01.2016
http://primanota.ru/sunday-secret/nightmare-chords.htm
Привет, Гость.
Предлагаем пройти революционный курс по гитаре.
Подарок от PrimaNota.Ru, забирай!