PrimaNota.ru - самый крупный в мире бесплатный архив песенных текстов, аккордов, табулатур и нот


Sunbathers - Intimacy - таба, видео

Регистрация Запомнить меня
Войти через:  Facebook Google Twitter Vk Yandex Mail.ru

Sunbathers - Intimacy - таба, видео

Печатать
Просмотров: 13
-------------------------------------------------------------------------------
                             Intimacy - Sunbathers
-------------------------------------------------------------------------------
Tabbed by: Smofoable
E-mail: smofoable@gmail.com

Tuning: Standard EAGDBe

Chords: A C#m B

All of this accompanies the part for Guitar 1 in the song. Guitar 2 might follow shortly. 

Intro:

e|------------7-x-7-x-7-7-----------7-x-7-x-7--------------------------------|
B|--9-x-9-x-9-------------9-x-9-x-9------------------------------------------|
G|---------------------------------------------------------------------------| x4
D|---------------------------------------------------------------------------|
A|---------------------------------------------------------------------------|
E|---------------------------------------------------------------------------|

Verse:

e|------------7-x-7-x-7-7-----------7-x-7-x-7--------------------------------|
B|--9-x-9-x-9-------------9-x-9-x-9------------------------------------------|
G|---------------------------------------------------------------------------| x7
D|---------------------------------------------------------------------------|
A|---------------------------------------------------------------------------|
E|---------------------------------------------------------------------------|

e|------------7-x-7-----------12---------------------------------------------|
B|--9-x-9-x-9--------------12------------------------------------------------|
G|-----------------------9---------------------------------------------------|
D|------------------6s11-----------------------------------------------------|
A|---------------------------------------------------------------------------|
E|---------------------------------------------------------------------------|

Chorus:

It's a little bit quieter...           All around...

                     A          C#m           B
e|-------------------5-----------9------------7------------------------------|
B|-------------------5-----------9------------7------------------------------|
G|-------------------6-----------9------------8------------------------------| x2
D|-------------------7-----------11-----------9------------------------------|
A|-------------------7-----------11-----------9------------------------------|
E|-------------------5-----------9------------7------------------------------|



e|------------7-x-7-x-7-7-----------7-x-7-x-7--------------------------------|
B|--9-x-9-x-9-------------9-x-9-x-9------------------------------------------|
G|---------------------------------------------------------------------------| x4
D|---------------------------------------------------------------------------|
A|---------------------------------------------------------------------------|
E|---------------------------------------------------------------------------|

Verse:

Fall to the floor...  collapse and crawl... to the door.

e|-------------------------------------------------------12-12---------------|
B|---------------------------------------------------------------------------|
G|---------------------------------------------------------------------------|
D|---------------------------------------------------------------------------|
A|---------------------------------------------------------------------------|
E|---------------------------------------------------------------------------|

With a face like that...    get away with a little more.              Skin so

e|-------------------------------------------------------12-12---------------|
B|---------------------------------------------------------------------------|
G|---------------------------------------------------------------------------|
D|---------------------------------------------------------------------------|
A|---------------------------------------------------------------------------|
E|---------------------------------------------------------------------------|

  Light...

e|------------7-x-7-x-7-7-----------7-x-7-x-7--------------------------------|
B|--9-x-9-x-9-------------9-x-9-x-9------------------------------------------|
G|---------------------------------------------------------------------------| x3
D|---------------------------------------------------------------------------|
A|---------------------------------------------------------------------------|
E|---------------------------------------------------------------------------|

e|------------7-x-7----------------------------------------------------------|
B|--9-x-9-x-9--------9-8-----------------------------------------------------|
G|-----------------------9---------------------------------------------------|
D|-------------------------9-------------------------------------------------|
A|---------------------------------------------------------------------------|
E|---------------------------------------------------------------------------|

Chorus:

It's a little bit wilder...            All around...

                     A          C#m           B
e|-------------------5-----------9------------7------------------------------|
B|-------------------5-----------9------------7------------------------------|
G|-------------------6-----------9------------8------------------------------| x4
D|-------------------7-----------11-----------9------------------------------|
A|-------------------7-----------11-----------9------------------------------|
E|-------------------5-----------9------------7------------------------------|

Bass Solo (5 Measures Silent, then join in):


e|------------------------------------|------------------12-12---------------|
B|------------------------------------|--------------------------------------|
G|------------------------------------|--------------------------------------| x2
D|------------------------------------|--------------------------------------|
A|------------------------------------|--------------------------------------|
E|------------------------------------|--------------------------------------|

Verse/Refrain: "I feel like an animal..."

e|------------7-x-7-x-7-7-----------7-x-7-x-7--------------------------------|
B|--9-x-9-x-9-------------9-x-9-x-9------------------------------------------|
G|---------------------------------------------------------------------------| x3
D|---------------------------------------------------------------------------|
A|---------------------------------------------------------------------------|
E|---------------------------------------------------------------------------|

e|------------7-x-7----------------------------------------------------------|
B|--9-x-9-x-9--------9-8-----------------------------------------------------|
G|-----------------------9---------------------------------------------------|
D|-------------------------9-------------------------------------------------|
A|---------------------------------------------------------------------------|
E|---------------------------------------------------------------------------|

Chorus/Refrain:

   I feel like an animal...        Make me beautiful.

                     A          C#m           B
e|-------------------5-----------9------------7------------------------------|
B|-------------------5-----------9------------7------------------------------|
G|-------------------6-----------9------------8------------------------------| x2
D|-------------------7-----------11-----------9------------------------------|
A|-------------------7-----------11-----------9------------------------------|
E|-------------------5-----------9------------7------------------------------|

Outro:

e|------------7-x-7-x-7-7-----------7-x-7-x-7--------------------------------|
B|--9-x-9-x-9-------------9-x-9-x-9------------------------------------------|
G|---------------------------------------------------------------------------| x4
D|---------------------------------------------------------------------------|
A|---------------------------------------------------------------------------|
E|---------------------------------------------------------------------------|




************************************

| /   slide up
| \   slide down
| h   hammer-on
| p   pull-off
| ~   vibrato
| +   harmonic
| x   Mute note
| b   Bend
| pb  Pre-bend
| br  Bend release
| pbr Pre-bend release
| brb Bend release bend

************************************
Добавлено: 24.06.2016
Другие материалы по этой песне:
  • Аккорды и текст

Страница создана 24.06.2016
http://primanota.ru/sunbathers/intimacy-chords.htm
Привет, Гость.
Предлагаем пройти революционный курс по гитаре.
Подарок от PrimaNota.Ru, забирай!