PrimaNota.ru - самый крупный в мире бесплатный архив песенных текстов, аккордов, табулатур и нот


Sun Kil Moon - Carissa - таба, видео

Регистрация Запомнить меня
Войти через:  Facebook Google Twitter Vk Yandex Mail.ru

Sun Kil Moon - Carissa - таба, видео

Печатать
Просмотров: 134
-------------------------------------------------------------------------------
                             CARISSA - Sun Kil Moon
-------------------------------------------------------------------------------
Tabbed by: harytheblurfan

Tuning: CGCEGc

The first song on Sun Kil Moon's heartbreaking album 'Benji.' This is in a very 
low tuning and played on a classical guitar. It sounds okay on a normal acoustic
but if you want the proper sound you're probably best sticking to the classical.
I'm not too sure what the timing exactly is but if you listen to the track you
can figure out how he plays it. It's at a sombre pace. 
 
This is just the riff Mark Kozelek plays in the verses:

c|---------------------------------------------------------------------------|
G|---------3-----------------------------------------------------------------|
E|-----------1-----------------------1---------------------------------------|
C|-----0-3-----------2h3p2-------2-3---------2h3p2---------------------------|
G|---0-------------3-----------3-----------3---------------------------------|
C|-0-----------0-3---------0-3---------0-3-----------------------------------|

c|---------------------------------------------------------------------------|
G|----------3-----------------------3----------------------------------------|
E|--------3---1-----------------------1--------------------------------------|
C|-----------------3------------0-3------------------------------------------|
G|-----3----------------------0----------------------------------------------|
C|-0-3----------3----2-3-2--0-----------0-3----------------------------------|

c|---------------------------------------------------------------------------|
G|---------------------------------------------------------------------------|
E|-------------------1-------------------------------------------------------|
C|---2h3p2-------2-3---------2h3p2-------------------------------------------|
G|-3-----------3-----------3-------------------------------------------------|
C|---------0-3---------0-3---------------------------------------------------|

c|---------------------------------------------------------------------------|
G|---------3-----------------------------------------------------------------|
E|-------3---1---------------------------------------------------------------|
C|-----------------3---------------------------------------------------------|
G|-----3---------------------------------------------------------------------|
C|-0-3----------3----2-3-2---------------------------------------------------|

And then this just repeats until 'Carissa was 35...' 


************************************

| /   slide up
| \   slide down
| h   hammer-on
| p   pull-off
| ~   vibrato
| +   harmonic
| x   Mute note
| b   Bend
| pb  Pre-bend
| br  Bend release
| pbr Pre-bend release
| brb Bend release bend

************************************
Добавлено: 06.11.2014
Другие материалы по этой песне:

Страница создана 13.07.2014
http://primanota.ru/sun-kil-moon/carissa-chords.htm
Привет, Гость.
Предлагаем пройти революционный курс по гитаре.
Подарок от PrimaNota.Ru, забирай!