PrimaNota.ru - самый крупный в мире бесплатный архив песенных текстов, аккордов, табулатур и нот


Summercamp - Drawer - текст песни, бас-таба, видео

Регистрация Запомнить меня
Войти через:  Facebook Google Twitter Vk Yandex Mail.ru

Summercamp - Drawer - текст песни, бас-таба, видео

Печатать
Просмотров: 41
G|------------------------------------------------------------------------------------------------|
D|------------------------------------------------------------------------------------------------|
A|7-7-7-7-7-7-7-7-7-7-7-7-6-6-6-6-6-6-6-6-6-6-6-6-5-5-5-5-5-5-5-5-5-5-5-5-------------------------| Intro X2
E|------------------------------------------------------------------------1-1-1-1-1-1-1-1-1-1-1-1-|
 |1 + 2 + 3 + 4 + 1 + 2 + 3 + 4 + 1 + 2 + 3 + 4 + 1 + 2 + 3 + 4 + 1 + 2 + 3 + 4 + 1 + 2 + 3 + 4 + |

G|------------------------------------------------------------------------------------------------|
D|------------------------------------------------------------------------------------------------|
A|3-------3-2-0---------0-3---------------3-2-0---------0-3---------------3-2-0---------0-3-------| Verse
E|--------------------------------------------------------------------------------------------2---|
 |1 + 2 + 3 + 4 + 1 + 2 + 3 + 4 + 1 + 2 + 3 + 4 + 1 + 2 + 3 + 4 + 1 + 2 + 3 + 4 + 1 + 2 + 3 + 4 + |

G|------------------------------------------------------------------------------------------------|
D|------------5-5-5-5-5-5-------------------------------------5-5-5-5-5-5-------------------------|
A|3-3-3-3-3-3-------------5-5-5-5-5-5-4-4-4-4-4-4-3-3-3-3-3-3-------------5-5-5-5-5-5-4-4-4-4-4-4-| Chorus X2
E|------------------------------------------------------------------------------------------------|
 |1 + 2 + 3 + 4 + 1 + 2 + 3 + 4 + 1 + 2 + 3 + 4 + 1 + 2 + 3 + 4 + 1 + 2 + 3 + 4 + 1 + 2 + 3 + 4 + |

(Verse)
(Chorus)

G|------------------------------------------------|
D|5-5-5-5-5-5-5-5-5-5-5-5-3-3-3-3-3-3-3-3-3-3-3-3-|
A|------------------------------------------------| Bridge
E|------------------------------------------------|
 |1 + 2 + 3 + 4 + 1 + 2 + 3 + 4 + 1 + 2 + 3 + 4 + |

G|------------------------------------------------------------------------------------------------|
D|------------------------------------------------------------------------------------------------| 
A|7-7-7-7-7-7-7-7-7-7-7-7-6-6-6-6-6-6-6-6-6-6-6-6-5-5-5-5-5-5-5-5-5-5-5-5-------------------------| Solo X2
E|------------------------------------------------------------------------1-1-1-1-1-1-1-1-1-1-1-1 |
 |1 + 2 + 3 + 4 + 1 + 2 + 3 + 4 + 1 + 2 + 3 + 4 + 1 + 2 + 3 + 4 + 1 + 2 + 3 + 4 + 1 + 2 + 3 + 4 + |

(Chorus)


Добавлено: 11.05.2016
Вам также может быть интересно:
Другие материалы по этой песне:
  • Аккорды и текст

Страница создана 26.06.2012
http://primanota.ru/summercamp/drawer-chords.htm
Привет, Гость.
Предлагаем пройти революционный курс по гитаре.
Подарок от PrimaNota.Ru, забирай!