PrimaNota.ru - самый крупный в мире бесплатный архив песенных текстов, аккордов, табулатур и нот


Summer Silhouette - Praise Anyone Love Everything - таба, видео

Регистрация Запомнить меня
Войти через:  Facebook Google Twitter Vk Yandex Mail.ru

Summer Silhouette - Praise Anyone Love Everything - таба, видео

Печатать
Просмотров: 43
(/) Slide Up  (\) Slide Down  (h) Hammer On  (p) Pull Off  (b) Bend (r) Release (v) Vibrato

Stave 1:

E|-----------|
B|-----------|
G|--------0--|
D|-----5-----|
A|--3--------|
E|-----------|

Stave 2:

E|-----------|
B|-----------|
G|-----------|
D|-----2--1--|
A|--0--------|
E|-----------|

Stave 3:

E|--------------------------------------------|
B|--------------------------------------------|
G|-----------------------------------------0--|
D|---------------7----------5-----------5-----|
A|-----6--5------5----5--7-----7--5--3--------|
E|--0-----------------------------------------|

Stave 4:

E|-----------|
B|-----------|
G|-----------|
D|-----2--1--|
A|--0--------|
E|-----------|

Stave 5:

E|--------------------------------------------|
B|--------------------------------------------|
G|--------------------------------------------|
D|---------------7----------5-----------------|
A|-----6--5------5----5--7-----7--5--3--------|
E|--0-----------------------------------------|
Добавлено: 17.11.2015
Другие материалы по этой песне:
  • Аккорды и текст

Страница создана 17.11.2015
http://primanota.ru/summer-silhouette/praise-anyone-love-everything-chords.htm
Привет, Гость.
Предлагаем пройти революционный курс по гитаре.
Подарок от PrimaNota.Ru, забирай!