PrimaNota.ru - самый крупный в мире бесплатный архив песенных текстов, аккордов, табулатур и нот


Summer Heart - Beat Of Your Heart - таба, видео

Регистрация Запомнить меня
Войти через:  Facebook Google Twitter Vk Yandex Mail.ru

Summer Heart - Beat Of Your Heart - таба, видео

Печатать
Просмотров: 137
Уроки эстрадного вокала в Санкт-Петербурге
Artist: Summer Heart
Song: Beat of Your Heart
Tuning: Standard

Guitar 1

Intro/Verse

e|10------|9-------|12------|12------|
B|10------|10------|12------|12------|
G|11------|11------|13------|13------|
D|12------|11------|14------|14------|
A|12------|9-------|14------|14------|
E|10------|x-------|12------|12------|

Chorus

e|2-------|0-------|2-------|0-------|
B|2-------|2-------|2-------|2-------|
G|2-------|1-------|2-------|1-------|
D|0-------|2-------|0-------|2-------|
A|x-------|0-------|x-------|0-------|
E|x-------|x-------|x-------|x-------|

e|2-------|0-------|2-------|0-------|
B|2-------|2-------|2-------|2-------|
G|2-------|1-------|2-------|1-------|
D|0-------|2-------|0-------|2-------|
A|x-------|0-------|x-------|0-------|
E|2-------|x-------|x-------|x-------|


Guitar 2

Intro / Solo part

e|--------|9-------|5-------|--------|
B|7-------|10-10---|7-9-----|9-------|
G|7-------|---11---|--9-----|9-9-----|
D|--------|--------|--------|--11----|
A|--------|--------|--------|--------|
E|--------|--------|--------|--------|

Chorus

e|----12-9|--10-12-|----12-9|--10-12-|
B|10------|--------|10------|--------|
G|--------|--------|--------|--------|
D|--------|--------|--------|--------|
A|--------|--------|--------|--------|
E|--------|--------|--------|--------|

e|----12-9|--10-12-|----12-9|--------|
B|10------|--------|10------|--------|
G|--------|--------|--------|--------|
D|--------|--------|--------|--------|
A|--------|--------|--------|--------|
E|--------|--------|--------|--------|
Добавлено: 09.12.2015
Вам также может быть интересно:
Другие материалы по этой песне:
  • Аккорды и текст

Страница создана 09.12.2015
http://primanota.ru/summer-heart/beat-of-your-heart-chords.htm
Привет, Гость.
Предлагаем пройти революционный курс по гитаре.
Подарок от PrimaNota.Ru, забирай!