PrimaNota.ru - самый крупный в мире бесплатный архив песенных текстов, аккордов, табулатур и нот


Summer Fades Away - Yukiho - таба, видео

Регистрация Запомнить меня
Войти через:  Facebook Google Twitter Vk Yandex Mail.ru

Summer Fades Away - Yukiho - таба, видео

Печатать
Просмотров: 32
-------------------------------------------------------------------------------
                             Yukiho - Summer fades away
-------------------------------------------------------------------------------

Tabbed by: Vlad
Email: vlad.radu2013@yahoo.com

Tuning: Standard

Could't find a tab around so I wrote one. This my first tab so sorry if I missed something.

e|-------0------------------------------|
A|----3-0--------------------3-0--0-----|
D|---0--------2-4-2----0----0----2------|
G|--2--------4--------2-2--4----0-------|
B|----------2--------3----5-------------|
E|-0------------------------------------|
Добавлено: 02.12.2015
Другие материалы по этой песне:
  • Аккорды и текст

Страница создана 02.12.2015
http://primanota.ru/summer-fades-away/yukiho-chords.htm
Привет, Гость.
Предлагаем пройти революционный курс по гитаре.
Подарок от PrimaNota.Ru, забирай!