PrimaNota.ru - самый крупный в мире бесплатный архив песенных текстов, аккордов, табулатур и нот


Sum 41 - There Will Be Blood - таба, видео

Регистрация Запомнить меня
Войти через:  Facebook Google Twitter Vk Yandex Mail.ru

Sum 41 - There Will Be Blood - таба, видео

Печатать
Просмотров: 178
Новый альбом группы 'Черный Кузнец' по культовому сериалу 'Сверхъестественное'!
Artist: Sum 41
Album: 13 Voices
Title: There Will Be Blood
Tuning: Standard

[Chorus]
"The little ones we couldn't control by the little ones..."
e|------------------------------------------------------------------------------------------|
B|------------------------------------------------------------------------------------------|
G|------------------5-5-5-5-5-5-5-5-------------------5-5-5-5-5-5-5-5--7-7-7-7-7-7-7--------|
D|-2-2-2-2-2-2-2-2--5-5-5-5-5-5-5-5--2-2-2-2-2-2-2-2--5-5-5-5-5-5-5-5--7-7-7-7-7-7-7--------|
A|-2-2-2-2-2-2-2-2--3-3-3-3-3-3-3-3--2-2-2-2-2-2-2-2--3-3-3-3-3-3-3-3--5-5-5-5-5-5-5--------|
E|-0-0-0-0-0-0-0-0-------------------0-0-0-0-0-0-0-0----------------------------------------|

[Verse]
Palm Mute
e|---------------------------------------------------------------------------|
B|---------------------------------------------------------------------------|
G|---------------------------------------------------------------------------|
D|-2-2-2-2-2-2-2-2--5-5-5-5-5-5-5-5--9-9-9-9-9-9-9--7-7-7-7-7-7-7-7----------|
A|-2-2-2-2-2-2-2-2--5-5-5-5-5-5-5-5--9-9-9-9-9-9-9--7-7-7-7-7-7-7-7----------|
E|-0-0-0-0-0-0-0-0--3-3-3-3-3-3-3-3--7-7-7-7-7-7-7--5-5-5-5-5-5-5-5----------|
   . . . . . . . .  . . . . . . . .  . . . . . . .  . . . . . . . .

e|---------------------------------------------------------------------------|
B|---------------------------------------------------------------------------|
G|---------------------------------------------------------------------------| TWICE
D|-2-2-2--2-2-2--2-2-2--2-2-2--2-2-2--5-5-5--4-4-4---------------------------|
A|-2-2-2--2-2-2--2-2-2--2-2-2--2-2-2--5-5-5--4-4-4---------------------------|
E|-0-0-0--0-0-0--0-0-0--0-0-0--0-0-0--3-3-3--2-2-2---------------------------|
   . .    . .    . .    . .    . .    . .    . . 

"I AM THE KING OF YOUR FANTASY!"
e|------------------------------------------------------------------------------------------|
B|------------------------------------------------------------------------------------------|
G|------------------------------------------------------------------------------------------|
D|-2~---------------------------------------------------------------------------------------|
A|-2~---------------------------------------------------------------------------------------|
E|-0~---------------------------------------------------------------------------------------|

[Chorus]

[Verse 2] Bass Line

[Chorus]

[Bridge]
e|---------------------------------------------------------------------------|
B|---------------------------------------------------------------------------|
G|---------------------------------------------------------------------------|
D|-2~-----2--5--4----2--5--4-------------------------------------------------|
A|-2~-----2--5--4----2--5--4-------------------------------------------------|
E|-0~-----0--3--2----0--3--2-------------------------------------------------|

This part sounds like holy image of lies bridge
e|---------------------------------|
B|---------------------------------|
G|---------------------------------|
D|-22222----22222----2222222222----|
A|-22222----22222----2222222222----|
E|-00000----00000----0000000000----|

"Deryck screams and the band members sang "La la la la la la la"
Guitar 1
e|----------------------------------------------------------------------------------------------------------|
B|----------------------------------------------------------------------------------------------------------|
G|----------------------------------------------------------------------------------------------------------|
D|-2-2-2-2-2-2-2-2-2--5-5-5-5-5-5-5-5--4-4-4-4-4-4-4-4--2-2-2-2-2-2-2-2-2--5-5-5-5-5-5-5-5--7-7-7-7-7-7-7---|
A|-2-2-2-2-2-2-2-2-2--5-5-5-5-5-5-5-5--4-4-4-4-4-4-4-4--2-2-2-2-2-2-2-2-2--5-5-5-5-5-5-5-5--7-7-7-7-7-7-7---|
E|-0-0-0-0-0-0-0-0-0--3-3-3-3-3-3-3-3--2-2-2-2-2-2-2-2--0-0-0-0-0-0-0-0-0--3-3-3-3-3-3-3-3--5-5-5-5-5-5-5---|

Guitar 2
e|------------------------------------------------------------------------|
B|------------------------------------------------------------------------|
G|-9-9-9-9-9-9-9-9--12-12-12-12-12-12-12-12--11-11-11-11-11-11-11-11------|
D|-X-X-X-X-X-X-X-X--X--X--X--X--X--X--X--X---X--X--X--X--X--X--X--X-------|
A|-7-7-7-7-7-7-7-7--10-10-10-10-10-10-10-10--9--9--9--9--9--9--9--9-------|
E|------------------------------------------------------------------------|

e|------------------------------------------------------------------------|
B|------------------------------------------------------------------------|
G|-9-9-9-9-9-9-9-9--12-12-12-12-12-12-12-12--14-14-14-14-14-14-14-14------|
D|-X-X-X-X-X-X-X-X--X--X--X--X--X--X--X--X---X--X--X--X--X--X--X--X-------|
A|-7-7-7-7-7-7-7-7--10-10-10-10-10-10-10-10--12-12-12-12-12-12-12-12------|
E|------------------------------------------------------------------------|

************************************

| x   Dead note
| g   Grace note
| (n) Ghost note
| h   Hammer-on
| p   Pull-off
| r   Release
| >   Accented note
| t   Tapping
| b   Bend
| br  Bend release
| pb  Pre-bend
| pbr Pre-bend release
| /   Slide up
| \   Slide down
| ~   Vibrato
| s   Slap
| P   Pop
| PM  Palm mute
| TR  Trill
| N   Tremolo

************************************
Добавлено: 24.01.2018
Другие материалы по этой песне:
  • Аккорды и текст

Страница создана 24.01.2018
http://primanota.ru/sum-41/there-will-be-blood-chords.htm
Привет, Гость.
Предлагаем пройти революционный курс по гитаре.
Подарок от PrimaNota.Ru, забирай!