PrimaNota.ru - самый крупный в мире бесплатный архив песенных текстов, аккордов, табулатур и нот


Sum 41 - Handle this1 - таба, видео

Регистрация Запомнить меня
Войти через:  Facebook Google Twitter Vk Yandex Mail.ru

Sum 41 - Handle this1 - таба, видео

Печатать
Просмотров: 113


(Solo part 1)
e------------12/10--14-14/15/14=10---10/12/10/12-14-----
B---------10-----------------------12-------------------
G-9slide11----------------------------------------------
D-------------------------------------------------------
A-------------------------------------------------------
D-------------------------------------------------------

(continued)
e--14/1514--10----------------------------------------
B-----------------12-10-----------10-10-----10-10-10/12-
G-----------------------12-11-12--------11-12-----------
D-------------------------------------------------------
A-------------------------------------------------------
D-------------------------------------------------------

(continued)
e-------------------------------------------------------
B-10----------------------------------------------------
G-----12-11-9--12-11-7-7--------------------------------
D-------------------------------------------------------
A-------------------------------------------------------
D-------------------------------------------------------
	
(part 2 of solo)                (do this 5x)
e-10-12-14-12-10-14/15/14-12-12------12-----------
B-10-10-10-10-10-10-10-10-10-10-10-10-------------
G------------------------------------------------------
D------------------------------------------------------
A------------------------------------------------------
D-------------------------------------------------

End on E---10---
       B---10---

And thats it Pretty simple huhhaha.This is the first thing I've ever tabbed.Sorry if it sux,but if u play it right,it sounds hella sick and the way it is in the song.Well L8er    -AnDrEw HeRnAnDeZ


Добавлено: 21.12.2013
Вам также может быть интересно:
Другие материалы по этой песне:
  • Аккорды и текст

Страница создана 21.12.2013
http://primanota.ru/sum-41/handle-this1-chords.htm
Привет, Гость.
Предлагаем пройти революционный курс по гитаре.
Подарок от PrimaNota.Ru, забирай!