PrimaNota.ru - самый крупный в мире бесплатный архив песенных текстов, аккордов, табулатур и нот


Sum 41 - Does This Look Infected - аккорды и текст, таба, бас-таба, видео

Регистрация Запомнить меня
Войти через:  Facebook Google Twitter Vk Yandex Mail.ru

Sum 41 - Does This Look Infected - аккорды и текст, таба, бас-таба, видео

Печатать
Просмотров: 224
Does This Look Infected
Sum 41
Sum 41
Does This Look Infected
2002 Aquarius Records
Submitted by: paramore_fans@yahoo.com

Tracklist:
1.) The Hell Song
2.) Over My Head
3.) My Direction
4.) Still Waiting
5.) ANIC
6.) No Brains
7.) All Messed Up
8.) Mr. Amsterdam
9.) Thanks For Nothing
10.) Hyper-Insomnia-Para-Condroid
11.) Billy Spleen
12.) Hooch

__________________________________________________

1.) The Hell Song

Key: B

Tuning: Standard EADGBe


Chords used:
G#m - 466444
E -   022100 in Verses, 079900 in Chorus
B -   x24442
F# -  244322


Intro:

Dave:
       Abm            E             B              F#
e|-------------|-------------|-------------|-----------------|
B|-------------|-------------|-------------|-----------------|
G|-------------|-------------|-------------|-----------------|
D|--------1----|--------1----|--------1----|-----2-2-1-1-----| x3
A|----2-4----2-|----2-4----2-|-2--2-4----2-|-------------4-4-|
E|-4-----------|-0-----------|-------------|-2-2-------------|


Deryck: G#m--E--B--F#-- x2


Verse 1:
Abm
  Everybody's got
      E
their problems
B
  Everybody says
    B
the same thing to you
Abm
  It's just a matter
        E
how you solve them
B
  And knowing how
to change the
F#
things you've
been through
Abm           E
  I feel I've come
to realize
B               F#
  How fast life can
be compromised
Abm            E
  Step back to see
what's going on
B           F#
  I can't believe
                 Abm E B F#(Intro)
this happened to you
                 Abm E B F#
This happened to you


Verse 2:
Abm
  It's just a problem
         E
that I'm faced with
    B
Am I not the only one
    F#
who hates to stand by
Abm
  Complications that are
E
first in this line
B
  With all these pictures
        F#
running through my mind
Abm
  Knowing endless
E
  consequences
B           F#
  I feel so useless in
    Abm
this Get back step
E               B
back and as for me
          F#
I can't believe


Chorus:
        Abm        E
Part of me won't agree
              B
Cause I don't know
            F#
if it's for sure
      Abm      E
Suddenly suddenly
        B
I don't feel
       F#
so insecure
(Repeat)


Post Chorus
   Abm Abm Abm Abm
Anymore


Solo:

Deryck: G#m--E--B--F# x4


Dave:
     S S S S  E   S  S  S S S S  E   S S
e|----------------------------------------|
A|---L-9-9-9--9------9----9-9-9--9--------|
D|---L-------11s--8-11b-L-------11s--8-6s-|
G|----------------------------------------|
B|----------------------------------------|
E|----------------------------------------|

   S  S  S  S  S S S S S S T  T  S T  T  S T  T  T  T
------------------------------------------------------|
------------------------------------------------------|
--11--L-11-11-11-9-8-6-L-6-8h-9p-8-6h-8p-6-4h-6p-4s-3-|
------------------------------------------------------|
------------------------------------------------------|
------------------------------------------------------|

                                     tr      tr      tr      tr
  E   E   E   S  S S S E   E   E     Q       Q       Q       Q
----------------------------------|----------------------------------|
----------------------------------|----------------------------------|
--8---9--11--13-11-L-8-8---9--11--|--3(4)----4(6)----6(8)----8(9)----|
--9--11--13--14-13-L-9-9--11--13--|----------------------------------|
----------------------------------|----------------------------------|
----------------------------------|----------------------------------|

   E    S  S   E   S  S   E   S  S   S   S  S  S
--------------------------------------------------|
---9----L-11--11---L-12--12---L-14--16------------|
--11b---L-13b-13b--L-14b-14b--L-16b-16b-16-13-18b-|
-----------------------------------------------L--|
--------------------------------------------------|
--------------------------------------------------|

  S  S    S    S    T   T  S  S  S   E     E   S  S  S  S
--------------------------------------------------------------------------------|
--------------------------------------------------------------------------------|
--L-18pb-18pb-18pb-18p-16----16-18b-18br--16---L-18-16-18br---------------------|
--------------------------18----------------------------------------------------|
--------------------------------------------------------------------------------|
--------------------------------------------------------------------------------|

  S  S  S  S  E   S  S   S  S  S S  E   S   S
----------------------------------------------|
----19--L------------------19--L--------------|
--L--L--L--L-16--16-18br-L--L--L-L-16--16s-15-|
----------------------------------------------|
----------------------------------------------|
----------------------------------------------|

  S  S  S  S  S  S  S  S  S  S  S  S  S  S  E      W
-----------------------------------------------|--------------------|
-----------------------------------------------|--------------------|
--L-16-15--------------------------------------|--------------------|
----------16-18-16-----------------------------|--------------------|
-------------------16-18-16-14-16-14--L-16-14--|--14----------------|
-----------------------------------------------|--16----------------|

  B.            E   E      S. T E  E  EE  E  E  E
-----------------------|-----------------------------|
-----------------------|-----------------------------|
-----------------------|-----------------------------|
-----------------------|-----------------------------|
--L--------------------|-----------------------------|
--L------------16--14--|--16s-x----------------------|


Interlude: G#m(hold)---G#m-F#


Verse 3:
Abm
  Everybody's got
      E
their problems
B
  Everybody says
    F#
the same thing to you
Abm
  It's just a matter
        E
how you solve them
B
  But what else are
               F#(hold)
we supposed to do


(Repeat Chorus)


Outro
Abm      E
  Why do things that
           B
matter the most
      F#
Never end up
          Abm
being our choice
(Anymore)
           E
Now that I find out
            B
it ain't so bad
        F#
I don't think I
knew what I had
(Anymore)
(Repeat)


End on G#m

_____________________________________________________

2.) Over My Head

Key: G

Tuning: Standard EADGBe

Chords used:
Em -   022000
G -    320033
D -    xx0232
C -    x32010
D/F# - 2x023x
Am -   x02210
C/G -  33xx33
G/D -  x557xx

Intro:

Dave: * means palm mute, until Verses
     Em         G        D/F#      D
e|---------|---------|---------|---------|
B|---------|-0---0---|---------|---------|
G|-----0---|---------|-----2---|---------|
D|-2-2---2-|---2---2-|-4-4---4-|-----4---| x6
A|---------|---------|---------|-5-5---5-|
E|---------|---------|---------|---------|
   x x   x     x   x   x x   x   x x   x


Deryck: * means Harmonics
e|-7*----|
B|----7*-|
G|-------|
D|-------|
A|-------|
E|-------|

     Em         G        D/F#      D
e|---------|---------|---------|---------|
B|---------|---------|---------|---------|
G|---------|-4-4-4-4-|-2-2-2-2-|---------|
D|-2-2-2-2-|---------|---------|-4-4-4-4-| x4
A|---------|---------|---------|---------|
E|---------|---------|---------|---------|


Cone:
     Em         G        D/F#      D
G|---------|---------|---------|----------|
D|-2-2-2-2-|-5-5-5-5-|-4-4-4-4-|-0-0-0-0--|
A|---------|---------|---------|----------| x4
E|---------|---------|---------|----------|


Verse 1:
     Em
What happened to you?
G                   D
  You've played the victim for
   Em               G   D
so long now in this game
       Em              G
What I thought was true
           D
Is made of fiction and
    Em            G
I'm following the same
    D
But If I


Refrain:
C
try to make
      D
sense of this
         Em
mess I'm in
I'm not sure where
           C
I should begin
       D
I'm falling
       Em
I'm falling
Now I'm in


Dave: Refrains
         C                 D                 Em
e|-----------------|-----------------|-----------------|
B|-----------------|-----------------|---------0---2---|
G|-----------------|-----------------|-----0-----------|
D|-----2-----2---2-|-----4-----4---4-|-2-2---2---2---0-|
A|-3-3---3-3---3---|-5-5---5-5---5---|-----------------|
E|-----------------|-----------------|-----------------|
                                             x2

         C                 D                    Em
e|-----------------|-----------------|-------------------------|
B|-----------------|-----------------|-------------------------|
G|-----------------|-----------------|-------------------------|
D|-----2-----2---2-|-----4-----4---4-|-2-2-2-2-2-2-2-2-2-2-2-2-|
A|-3-3---3-3---3---|-5-5---5-5---5---|-2-2-2-2-2-2-2-2-2-2-2-2-|
E|-----------------|-----------------|-0-0-0-0-0-0-0-0-0-0-0-0-|


Cone: Refrains
         C                 D                        Em
G|-----------------|-----------------|----------------------------------|
D|-----2-----2---2-|-----4-----4---4-|-----5----4-5---------5---4-5-4---|
A|-3-3---3-3---3---|-5-5---5-5---5---|-7-7---7------7-7-7-7---7-------7-|
E|-----------------|-----------------|----------------------------------|

         C                 D                    Em
G|-----------------|-----------------|-------------------------|
D|-----2-----2---2-|-----4-----4---4-|-------------------------|
A|-3-3---3-3---3---|-5-5---5-5---5---|-------------------------|
E|-----------------|-----------------|-0-0-0-0-0-0-0-0-0-0-0-0-|


Chorus:
Em
Over my head with
C
something I said
   G
Completely misread
    D
I'm better off dead
    Em
And now I can see
    C/G
how fake you can be
       G/D
This hypocricy's
  D
beginning to get to me


Interlude:

Deryck: Em-C-G-D x2

Dave:
   Em    C    G    D
e|-----|----|----|----|
B|-----|----|----|----|
G|-12--|-14-|-14-|-11-|
D|--x--|--x-|--x-|--x-| x2
A|-10--|-12-|-10-|--9-|
E|-----|----|----|----|

Cone:
    Em     C      G        D
G|------|------|------|---------|
D|------|------|------|---------|
A|----3-|-3----|----5-|-5-5-3-5-| x2
E|-0----|----3-|-3----|---------|


Verse 2:
     Em
It's none of my concern
G              D
  Well look to me cause
  Em               G   D
I don't believe in fame
  Em
I guess you never heard
G              D
  I've met our makers they
      Em             G
don't even know your name
    D
But if I


Refrain 2:
C
had to say
    D
goodbye to
           Em
leave this hell
I'd say my time
              C
has served me well
       D
I'm falling
       Em
I'm falling
Now I'm in


(Repeat Chorus)


Post Chorus:
Em          C
  This came long before
G           D/F#
  Those who suffer more
Em         C/G
  I'm too awake for this
   G/D  D
to be a nightmare
Em            C
  What's with my disgrace
G            D/F#
  I lost the human race
Em             C/G
  No one plans for it to
G/D     D
Blow up in their face


Interlude:

Deryck: Em--D/F#--G--Am x2

Dave: Until Bridge
     Em      D/F#      G          Am
e|--------|--------|--------|-------------|
B|--------|--------|--------|-------------|
G|-12--11-|-14--12-|-16--12-|-11-12-14-16-|
D|--x---x-|--x---x-|--x---x-|--x--x-x---x-| x2
A|-10---9-|-12--10-|-14--10-|--9-10-12-14-|
E|--------|--------|--------|-------------|

Cone:
     Em        D/F#       G        Am
G|---------|---------|---------|---------|
D|---------|---------|---------|---------|
A|---------|---------|---------|---------| x2
E|-0-0-0-0-|-2-2-2-2-|-3-3-3-3-|-5-3-2-3-|

Bridge:
Em           D/F#     G
  Who said it was easy to put
     Am
back all these pieces
Em            D/F#        G
  Who said it was so easy to
             D/F#
put back all of these pieces
Now I'm in


(Repeat Chorus)


Outro:
Em C   G  D
O--ver my head
Em C   G   D
better off dead
(Repeat)

____________________________________________

3.) My Direction

Key: F

Tuning: Drop D

Chords used: Drop D only
F -  333xxx
Eb - 111xxx
D -  000xxx
Bb - x133xx
C -  x355xx

Chords used: for Standard EADGBe
F -  133211
Eb - 68886
D -  xx0232
Bb - x13331
C -  x32010


Chorus:
F    Eb      Bb      F
  Perfection is my direction
F  Eb     Bb           F
  Even if that's all I had
F      Eb         Bb         F
  It's not like I need no correction
F        Eb        Bb            F
  I just know that life's not so bad


Verse 1:
F            Eb       F
Picture this everyday kids
                Eb
that just can't find a way
 F            Eb
Stuck in disarray can't
     F               Eb
find hope for better days
         F     Eb D
It's the degenera-tion of
F             Eb D
childhood frustration
       F
In the last 30 years
        Eb             Bb
Teenage suicide has increased
        F
300% in North America
          Eb
It is the second major
                  Bb
cause of death in Canada


(Repeat Chorus)


Interlude: F--Eb--Bb x4


Verse 2:
F
When will all my
Eb            Bb
problems disappear
   F            Eb
Am I just going crazy
         Bb
from the fear
   F            Eb
Oh my oh my I'm going
             Bb
far past the brink
    F
The pressure's
like a weight
       Eb
And I still can't
       Bb
think straight


(Repeat Chorus)


Interlude: F--Eb-F-Eb-F-Bb x2


Verse 3:
     F           Eb
I've met my destinations
   F                 Eb
So what's left to complain about
     F              Eb
With all these aggravations
F                 Eb
Building till the seams fall out
    C       Bb       C
I'm running my mouth dry
     C     Bb     C
With every time I lie
C          Bb     C     Bb
Don't tell me without a doubt
     C         Bb       C       Bb
This dumbfound luck has all run out
C          Bb     C     Bb
Don't tell me without a doubt
     C         Bb       C       Bb
This dumbfound luck has all run out


(Repeat Chorus)

____________________________________________

4.) Still Waiting

Key: G

Tuning: Standard EADGBe

Chords used:
Em -   022000
C -    x32010
G -    320033
Bm -   x24432
D -    xx0232
Am -   x02210
Bb -   x13331
D/F# - 2x023x


Intro:
Em       C
  So am I still waiting
G                Bm
  For this world to stop hating
Em            C
  Can't find a good reason
G                 D            D(hold)
  Can't find hope to believe in


Post Chorus: Em--C--Em--C-Bm x2


Verse 1:
Em
  Drop dead a
Bb Em     Am Em
bullet to my head
Em
  Your words are
       G
like a gun in hand
Em
You can't change the
 Bb   Em     Am Em
state of the na-tion
G
  We just need
     Bm
some motivation
Em
  Since I have
Bb   Em    Am Em
seen no conviction
Em
  Just lies and
G
more contradiction
Em
  So tell me
Bb   Em    Am  Em
what would you say
G             Bm
  I'd say its up, to me


Chorus 1:
Em       C
  So am I still waiting
G                Bm
  For this world to stop hating
Em            C
  Can't find a good reason
G                 Bm
  Can't find hope to believe in


(Repeat Post Chorus once)


Verse 2:
Em
  Ignorance and
Bb Em  Am Em
Un-derstanding
Em
  We're the first
        G
ones to jump in line
Em
  Out of step for
Bb   Em   Am    Em
what we believe in
G
  But whos left? To
 Bm
start the pleading
Em        Bb
  How far will
Em Am   Em
we take this
Em                 G
  It's not hard to see
through the thickness
Em
  So tell me what
Bb    Em  Am Em
would you say
G             Bm
  I'd say its up to me


(Repeat Chorus)


Bridge:
Em   C     G    D/F# Bm
This can't last for--ever
Em   C     G
Time won't make
D/F#   Bm
things better
Em       C  D Em
  I feel so a-lone
      C    D Em
Can't help myself
    C  D   Em
And no one knows
           C
If this is worthless
D      Em C G Bm
  Tell me        so


Interlude: Em--C--G--Bm-D, Em--C--G--Bm

Dave: Sweeping guitar Solo: Fast fingers are required to play this part
         Em                C                G           
        D
e|----------------|----------------|----------------|---------|---------|
B|----------------|----------------|----------------|---------|---------|
G|--------4-------|--------4-------|--------4-------|---------|---------|
D|-----5----5-4-5-|-----5----5-4-5-|-----5----5-4-5-|-----4-5-|-7-5-4---|
A|---7------------|-3-3------------|---5------------|-2-2-----|-------5-|
E|-0--------------|----------------|-3--------------|---------|---------|


Verse 3:
Em         C
  What have we done
G
  We're in a war
Bm               D
that can't be won
Em          C
  This can't be real
G
  I don't know
Bm
what to feel


(Repeat Chorus 1)


Chorus 2:
Em       C
  So am I still waiting
G                Bm
  For this world to stop hating
Em            C
  Can't find a good reason
G                 Bm   Em(hold)
  Can't find hope to believe
________________________________________________

5.) ANIC

Key: A

Tuning: Drop D

Chords used: Drop D only
F#m - 444xxx
D -   000xxx
A -   777xxx
E -   222xxx
Bm -  999xxx
C -   x355xx


Chords used: For Standard EADGBe
F#m - 244222
D -   xx0232
A -   x02220
E -   022100
Bm -  x24432
C -   x32010


Intro:
Bm(hold)
  Fucking Shit


Verse:
    F#m
You look like ass
     A
You smell like shit
   D
So why are you
       Bm
such a dick?
    F#m
You walk around
     A
like you're the
         D
tits You always
       Bm
make me sick
E                C Bm
  Bound for agony
    E
You life's
           C Bm
catastrophe
(Repeat)


Chorus:
          F#m    A D Bm
You're an asshole
          F#m    A D Bm
You're an asshole
          F#m    A D Bm
You're an asshole
          F#m    A D Bm
You're an asshole
You make me sick

_________________________________________________

6.) No Brains

Key: A

Tuning: Drop D

Chords used: Drop D only
F#m -   444xxx
D -     000xxx
A -     777xxx
E -     222xxx
E/G# -  676xxx

Chords used: Standard EADGBe
F#m -   244222
D -     xx0232
A -     x02220
E -     022100
E/G# -  476xxx


Verse 1:
F#m                   D
  Can't step in my way
A
  Head first and
     E
love and dismay
F#m                         D
  It's like beating the dead
A
  I can't stop going
    E
out on my head
F#m
  Whatever this could
       D
be I never know
A
  I never said it'd be
        E
the end all to be all


Refrain 1:
  D
I hate you today
  E
I can't find a way
      F#m     D    E
Don't drag me down now


Chorus 1:
    F#m
Goodbye
     D
I've had enough
    E
frustration
  A          E/G#
I won't get stuck
    F#m
Goodbye
     D
This dead end
    E
situation
   A
Is just not
E/G#     F#m-- x4
worth my time


Verse 2:
F#m                   D
  It's no better today
A
  I never thought it
          E
would end up this way
F#m                          D
  You've got something to say
A
  Don't want to hear it
           E
if it gets in my way
F#m
All this confusion wondering
is so overwhelmed
F#m
All Disillusion
seems so clear now
F#m
Can't find your conclusion
to supporting evolution
    F#m
Not all Things aren't
what they appear


Refrain 2:
So what's the
D
point of this now
     E
I know you too well
         F#m        A
We're running backwards


Chorus 2:
    F#m
Goodbye
     D
I've had enough
    E
frustration
  A          E/G#
I won't get stuck
    F#m
Goodbye
     D
This dead end
    E
situation
   A
Is just not
E/G#     D
worth my time
but waiting
E
so frustrating
F#m           A-E/G#
I'm so sick of
D
All this tension
E
not to mention
F#m           A-E/G#
I'm so sick of
D
  Can't take it
E
  We won't make it
F#m             E/G#
  Just save yourself
this trouble
D
  Can't take it
E               F#m
  quite for yourself
Cause I'm just fine


Dave: on "Can't take It.."
   E   E   E   E   E   E   E E      E   E   E   E   E   E E   E
----------------------------------|----------------------------------|
----------------------------------|----------------------------------|
--11--11--13--13--14--14--16--16--|--11--11--13--13--14--14--16--16--|
---x---x---x---x---x---x---x---x--|---x---x---x---x---x---x---x---x--|
---9---9--11--11--12--12--14--14--|---9---9--11--11--12--12--14--14--|
----------------------------------|----------------------------------|

   E   E   E   E   E   E   E E      E   E   E   E   E   EE  E
----------------------------------|--------------------------------|
----------------------------------|--------------------------------|
--18--18--16--16--14--14--13--13--|--14--14--13--13--11--11--9--9--|
---x---x---x---x---x---x---x---x--|---x---x---x---x---x---x--x--x--|
--16--16--14--14--12--12--11--11--|--12--12--11--11---9---9--7--7--|
----------------------------------|--------------------------------|

   E   E   E   E   E   E   E E      E   E   E   E   E   E E   E
----------------------------------|----------------------------------|
----------------------------------|----------------------------------|
--11--11--13--13--14--14--16--16--|--11--11--13--13--14--14--16--16--|
---x---x---x---x---x---x---x---x--|---x---x---x---x---x---x---x---x--|
---9---9--11--11--12--12--14--14--|---9---9--11--11--12--12--14--14--|
----------------------------------|----------------------------------|

   W
------|
------|
--18--|
---x--
--16--|
------|


Guitar Solo:

Deryck 1: F#m--D--E--A-E/G# x2

Deryck 2:
--------------|
--------------|
--11--------6-|
---x--------x-|
---9--------4-|
--------------|

  B        B            B         B            B       B
--------------------|----------------------|----------------------|
--------------------|----------------------|----------------------|
--9--------7--------|--13--------11--------|--14--------13--------|
--x--------x--------|---x---------x--------|---x---------x--------|
--7--------5--------|--11---------9--------|--12--------11--------|
--------------------|----------------------|----------------------|

   B        B           B        B            B       B
---------------------|--------------------|----------------------|
---------------------|--------------------|----------------------|
--11--------6--------|--9--------7--------|--13--------11--------|
---x--------x--------|--x--------x--------|---x---------x--------|
---9--------4--------|--7--------5--------|--11---------9--------|
---------------------|--------------------|----------------------|

   B         B
---------------|
---------------|
--14--------13-|
---x---------x-|
--12--------11-|
---------------|


Dave 1:

----------------24--12--|
------------------------|
------------------------|
------------------------|
------------------------|
------------------------|

   S  S S S  S  S S S  S  S S S  S  S S S
------------------------------------------|
--10-10-9-9-10-10-9-9-12-12-9-9-10-10-9-9-|
------------------------------------------|
------------------------------------------|
------------------------------------------|
------------------------------------------|

   S  S S S  S  S S S  S  S S S  S  S S S     Q      E  E  E   E  S   S  E
------------------------------------------|---------------------------------|
--12-12-9-9-10-10-9-9-12-12-9-9-10-10-9-9-|--12b----12--9--L--10--9h-10p-9--|
------------------------------------------|---------------------------------|
------------------------------------------|---------------------------------|
------------------------------------------|---------------------------------|
------------------------------------------|---------------------------------|

   E  E   E  E   Q      Q       E    E   E    E  S  S  S  S  S  S  S  S
-----------------------------|------------------------------------------|
-----------------------------|------------------------------------------|
--11--9--11--9--11br----9----|--9h--11p--9h--11--9-11-13-14-16-18-19-21-|
-----------------------------|------------------------------------------|
-----------------------------|------------------------------------------|
-----------------------------|------------------------------------------|

   S  S  S  S  S  S  S  S  S   S   S   S   S   S   E
--------------------------24h-26p-24h-26p-24h-26p-24--|
--------22-24-26-27-27-29-----------------------------|
--21-23-----------------------------------------------|
------------------------------------------------------|
------------------------------------------------------|
------------------------------------------------------|

   Q      E   E   E   E   S   S   E
  E   E   E   B
--26b----26--24---L--26--24h-26p-24--|--21--19--21--24--26b--------|
-------------------------------------|-----------------------------|
-------------------------------------|-----------------------------|
-------------------------------------|-----------------------------|
-------------------------------------|-----------------------------|
-------------------------------------|-----------------------------|

   W
--21-
-----
-----
-----
-----
-----


Dave 2:
                 Set for two octaves above for just the first note.
  B        Q     E                                                  E
-----------------------------------------------------------------------|
----------------12-------------------------------------------------12--|
-----------------------------------------------------------------------|
-----------------------------------------------------------------------|
-----------------------------------------------------------------------|
-----------------------------------------------------------------------|

   S  S S S  S  S S S  S  S S S  S  S S S
------------------------------------------|
--10-10-9-9-10-10-9-9-12-12-9-9-10-10-9-9-|
------------------------------------------|
------------------------------------------|
------------------------------------------|
------------------------------------------|

   S  S S S  S  S S S  S  S S S  S  S S S     Q      E  E  E   E  S   S  E
------------------------------------------|---------------------------------|
--12-12-9-9-10-10-9-9-12-12-9-9-10-10-9-9-|--12b----12--9--L--10--9h-10p-9--|
------------------------------------------|---------------------------------|
------------------------------------------|---------------------------------|
------------------------------------------|---------------------------------|
------------------------------------------|---------------------------------|

                                                 Steady gliss.
                                                 tr
   E  E   E  E   Q      Q       E
  E    E  B
-----------------------------|---------------------------------|
-----------------------------|---------------------------------|
--11--9--11--9--11br----9----|--9h--11p--9h--11--9(11)---------|
-----------------------------|---------------------------------|
-----------------------------|---------------------------------|
-----------------------------|---------------------------------|

  w/ Digitech Whammy pedal.  Set for two octaves.
  Q.                                              E  S   S  S   S  S   S  E
-----------------------------------------------------------------------------|
-----------------------------------------------------------------------------|
--L-----------------------------------------------L--9h-11p-9h-11p-9h-11p-9--|
-----------------------------------------------------------------------------|
-----------------------------------------------------------------------------|
-----------------------------------------------------------------------------|

   Q      E  E  E   E  S   S  E
 E   E  E   B
---------------------------------|---------------------------|
---------------------------------|---------------------------|
--11b----11--9--L--11--9h-11p-9--|-------------9--11b--------|
---------------------------------|--11--9--11----------------|
---------------------------------|---------------------------|
---------------------------------|---------------------------|

   W                   Q    Q    H           W
--------------------|---------------------|-------------------|
--------------------|---------------------|-------------------|
--------------------|---------------------|-------------------|
--11----------------|--L------------------|-------------------|
--------------------|---------------------|-------------------|
--------------------|---------------------|-------------------|


Interlude:

Deryck 1: F#m--D--A--E-- x2

Deryck 2: x6
  PM PM PM PM PM PM PM PM    PM PM PM PM PM PM PM PM
  E  E  E  E  E  E  E  E   E  E  E  E  E  E  EE
--------------------------|--------------------------|
--------------------------|--------------------------|
--2--2--1--1--------------|--2--2--2--2--2--2--------|
--------------4--4--2--2--|--4--4--4--4--4--4--2--2--|
--------------------------|--------------------------|
--------------------------|--------------------------|

  PM PM PM PM PM PM PM PM    PM PM PM PM PM PM PM PM
  E  E  E  E  E  E  E  E   E  E  E  E  E  E  EE
--------------------------|--------------------------|
--------------------------|--------------------------|
--------------------------|--------------------------|
--------------------------|--2--2--2--2--2--2--2--2--|
--4--4--4--4--4--4--4--4--|--2--2--2--2--2--2--2--2--|
--------------------------|--------------------------|


Dave 1: x6
  E  E  E  E  B
-----------------------|
-----------2--L--------|
--------2--------------|
-----4-----------------|
--4--------------------|
-----------------------|


Bridge:
F#m             D
  You speak for all of us when
A              E
  You can't be heard
F#m         D
  I bet you haven't listened
A            E
  To not one word
F#m             D
  You speak for all of us when
A              E
  You can't be heard
F#m         D
  I bet you haven't listened
A            E
  To not one word


Chorus 3:
    F#m
Goodbye
     D
I've had enough
    E
frustration
  A          E/G#
I won't get stuck
    F#m
Goodbye
     D
This dead end
    E
situation
   A
Is just not
E/G#     D
worth my time
but waiting
E
so frustrating
F#m
I'm so sick of
D
All this tension
E
not to mention
F#m           A-E/G#
I'm so sick of
        F#m(hold)
sick of you

_______________________________________

7.) All Messed Up

Key: B then E

Tuning: Standard EADGBe

Chords used:
B -    x24442
B/D# - x698xx
E -    022100 or 079900
F# -   244322
A -    x02220
C#m -  x46654
G#m -  466444


Intro: B--B/Eb--E--F#-- x2, B


Verse 1:
            A      E      B
Another day wasted out of time
I can't get out of this
A        E       B
Altered state of mind
I'm going overboard
   A          E
My conscience meets
  B
decline Into Reality
  A         E        F#
I know this can't be fine


Chorus 1:
          E   A      B
Cause I'm all messed up
       E
Making prefect nonsense
A              B         A
Drowning in my doubt too well
          E   A      B
Cause I'm all messed up
      E
Going nowhere fast
    A
but circles in my
B       A
mind So blind


Interlude: B--B/Eb--E--F#--


Verse 2:
              A      E
Who are these voices in my
B
head I can't go on like
     A      E        B
this Living like the dead
I haven't slept so long
A       E     B
Feeling sad I dread
I'm talking to myself
   A        E      B
Forgot what I just said


Chorus 2:
          E   A      B
Cause I'm all messed up
       E
Making prefect nonsense
A              B         A
Drowning in my doubt too well
          E   A      B
Cause I'm all messed up
      E
Going nowhere fast
    A
but circles in my
B       A    G#m-F#-A--G#m-F#-A--G#m-F#-F#---
mind So blind


Bridge:
       E         B/D#
Well I hold my only
C#m      A            B
enemy as closely as a friend
    B/D# E           B/D# C#m
And I    sold my own re---ality
   A            B
to further my descent
     B/D# E          B/D#
Self-des--truction taking
C#m          A          B
over it's so easy to pretend
  B/D# E          B/D#
Intro--duction to this
C#m
nightmare can you
A               B---
seize may never end


Interlude:
B-B--E--B-B-F#-B-B--E--B-B-F#-B- x4


Verse 3:
           A       E
Can anyone help me drag my
B
heels I'm running overtime
  A          E       B
I can't hold down my meals
My mind is racing by
 A      E       B
Staring blankly feels
Like pulling out my teeth
A          E      B
While this engine winds


(Repeat Chorus 1)


Outro: B--B/Eb--E--F#-- x2, B

_________________________________________

8.) Mr. Amsterdam

Key: F#

Tuning: Standard EADGBe

Chords used:
Ebm -  x68876
C# -   x46664
B -    x24442
F# -   244322
G#m -  466444
C#/F - 143xxx
E -    022100
Bbm -  x13321
Bb/D - x587xx


Intro: Ebm(hold) x2, Ebm--Bbm--F#--Bbm--F#-C#/F-|
Ebm--Bbm--F#--C# x2, Ebm------------------------|


Verse 1:
     Ebm         C#
I've said this before
          B          F#
No matter how hard I try
  Ebm           C#
I can't help be bored
           B            F#
While this world passes by
        Ebm C#/F
So this revelation's
B      C#
got no meaning
   Ebm     C#/F
We lost it all in
B        C#
hopeless dreaming
   Ebm
Am I just losing grip
F#
Paint it black and
C#
just forget me
     Ebm
This worlds a sinking ship
F#              C#
coz our baggage is too heavy


Chorus 1:
Ebm            C#/F
I can't stop believing there's
B               C#
something to be said
Ebm          C#/F
What are we achieving with
    B                   C#
the bullshit that we're fed
       Ebm               C#/F
I know I'm not going to stay
   B               C#
Or live to see the day
     Ebm            C#/F
this world comes to be
            B    C#
So here's a resignation from
Ebm  B    C#          Ebm
me a resignation from me
  B    C#
a resignation from me


Interlude: Ebm--Bbm--F#--C# x2


Verse 2:
     Ebm         C#
I've said this before
          B          F#
No matter how hard I try
  Ebm           C#
I can't help be bored
           B
While this world passes
F# Ebm       C#
by     Don't tell me we're
B         F#
closed to something
Ebm    C#            B     F#
  That we don't even understand
     Ebm
Were prisoners to our homes
F#
Some might say that
     C#
were all to blame
    Ebm
The outsides so unknown
    F#          C#
And no one here to complain


Chorus 2:
Ebm              C#/F
I can't find the answers
   B          C#
to save humanity
Ebm              C#/F
I can't find the anger here's
  B    C#          Ebm
a resignation from me
  B    C#          Ebm
a resignation from me
  B    C#          Ebm
a resignation from me
  B    C#          Ebm--E-E-Ebm--E-E-Ebm--E-E-Ebm-Ebm-Ebm-Ebm
a resignation from me


Outro:
Ebm--F#-C#/F--Ebm--Bb/D--Ebm--F#-C#/F---C#-C#--C#-Bb/D------| x2
Ebm--Bbm--F#--C# x2, Ebm--Ebm--Ebm--Ebm---------------------|E(hold)

_____________________________________

9.) Thanks For Nothing

Key: F

Tuning: Drop D

Chords used: Drop D only
Dm -  000xxx
Bb -  888xxx
F -   333xxx
C -   x355xx
Gm -  555xxx
Am -  777xxx
C/E - 232xxx
Em -  222xxx

Chords used: Standard EADGBe
Dm -  xx0231
Bb -  x13331
F -   133211
C -   x32010
Gm -  355333
Am -  x02210
C/E - 032xxx
Em -  022000


Intro: Dm--Bb--F--C-- x4


Verse 1:
     Dm
I'll never take part in
    Bb
the growing population
   F
Or waste my time with
C
further education
   Dm
Forget what we know
     Bb
It's just a big show
F                 C
What they want to control
   Dm         Bb
So jaded, frustrated
    F      C
Its all so complicated
Dm         Bb
Fashion no passion
   F
surrounds me


Chorus 1:
Gm
All I know is
Dm
I've heard this
      Bb
all before
            F
Reality's a bore
                C
You ask me to believe
   Bb
in something fake
     Dm                   Bb
Well I can't bring myself to
                    F
Do what you want me to
               C
This is who we are and
Bb              Dm    Bb
Nothing's gonna change
F C               Dm    Bb F C
  Nothing's gonna change


Verse 2:
  Dm
I can't take part in the
Bb
businessman illusion
     F
I'll take my chance in
    C
the real world confusion
Dm
Don't blame us
Bb
Who do we trust
     F             C
When they're so dishonest?
   Dm            Bb
No patience this nation's
  F           C
obsessed with exploitation
Добавлено: 30.10.2013
Другие материалы по этой песне:
  • Аккорды и текст

Страница создана 30.10.2013
http://primanota.ru/sum-41/does-this-look-infected-chords.htm
Привет, Гость.
Предлагаем пройти революционный курс по гитаре.
Подарок от PrimaNota.Ru, забирай!