PrimaNota.ru - самый крупный в мире бесплатный архив песенных текстов, аккордов, табулатур и нот


Sum 41 - Back Where I Belong - аккорды и текст, таба, видео

Регистрация Запомнить меня
Войти через:  Facebook Google Twitter Vk Yandex Mail.ru

Sum 41 - Back Where I Belong - аккорды и текст, таба, видео

Печатать
Просмотров: 341
Авторы музыки: Deryck Whibley
Авторы текста: Deryck Whibley
Back Where I Belong
Sum 41
Sum 41
Back Where I Belong
Screaming Bloody Murder
2011 Island records
Submitted by: paramore_fans@yahoo.com

Key: A

Tuning: Drop D

Chords used: Drop D only
F#m -  444xxx
E -    222xxx
A -    777xxx
Bm -   999xxx
D -    000xxx
C#m -  x466xx
C#/F - 343xxx

Chords used: for Standrd EADGBe
F#m -  244222
E -    022100
A -    x02220
Bm -   x24432
D -    xx0232
C#m -  x46654
C#/F - 143xxx


Intro: 

Cone: F#m--E--A--Bm--


Tom: continue up to Verses
e|------------------------------------|
B|---------------12----------------14-|
G|-11h13h14--11------11---14---11-----|
D|------------------------------------| x4
A|------------------------------------|
D|------------------------------------|

Deryck: Idle until Verses


Verse 1:
F#m
   Got my back against 
the wall tried 
E
   to scream theres no sound 
      A
at all I'm stuck with 
                        Bm
nowhere to turn but I'm trying
F#m
    Trying hard not 
             E
to be the one left 
behind to become undone 
A
   you cant stop what's
already begun
Bm                (hold)
Hear the down and out


Chorus 1:
F#m            A
I'm not giving up
            E
I won't let go
        D
cos I'm here till I'm
          F#m
done this time I've hard
 A               E
enough I'm on my own but
     D
I am back where I belong


Post Chorus 1:

Deryck:
   F#m    E     D     E
e|-----|-----|-----|-----|
B|-----|-----|-----|-----|
G|-----|-----|-----|-----|
D|-4-4-|-2-2-|-0-0-|-2-2-| x2
A|-4-4-|-2-2-|-0-0-|-2-2-|
D|-4-4-|-2-2-|-0-0-|-2-2-|

Cone:
   F#m    E     D     E
G|-----|-----|-----|-----|
D|-----|-----|-----|-----| x2
A|-----|-----|-----|-----|
D|-4-4-|-2-2-|-0-0-|-2-2-|

Tom:
e|-5---5---5---5p4-----5---5---5-|
B|-----------------5-------------|
G|-------------------------------|
D|-------------------------------|
A|-------------------------------|
D|-------------------------------|


Verse 2:
F#m
   You stand closer but your far 
    E
away seems like its further 
        A
everyday the feelings never 
                Bm
go away but I'm trying
F#m
   At the end of a losing race 
E
   time passes me without a trace 
A
   trying hard just to find a 
      Bm                 (hold)
place now that I'm on to you


(Repeat Chorus 1)


Post Chorus 2: F#m---F#m---F#m(hold)


Bridge: Beat Slowerd, Acosutic Guitar
F#m                     D
   Memories they hold a place just
                 C#m
in time to go to waste and 
                  F#m   C#/F F#m C#/F
they all become replaced
F#m C#/F#m C#/F(hold)
ohh


Cool Riff:

Both Deryck and Tom:
    F#m      A       Bm     A    F#m   E     D
e|-------|-------|-------|-----|-----|---|-------|
B|-------|-------|-------|-----|-----|---|-------|
G|-------|-------|-------|-----|-----|---|-------|
D|-------|-------|-------|-----|-----|---|-------| x8
A|-------|-0-0-0-|-2-2-2-|-0-0-|-----|---|-------|
D|-4-4-4-|-------|-------|-----|-4---|-2-|-0-0-0-|

Cone:
    F#m      A       Bm     A    F#m   E     D
G|-------|-------|-------|-----|-----|---|-------|
D|-------|-------|-------|-----|-----|---|-------|
A|-------|-0-0-0-|-2-2-2-|-0-0-|-----|---|-------|x8
D|-4-4-4-|-------|-------|-----|-4---|-2-|-0-0-0-|


Chorus 2:
F#m            A
I'm not giving up
            E
I won't let go
              D
cos I'm where back
          (hold)
where I belong


(Repeat Chorus 1)


Outro: Repeat Cool Riff but only x4

End on F#m(Hold) and there's a creepy
sound to Enter the song Exit song
Добавлено: 18.06.2012
Другие материалы по этой песне:

Страница создана 13.05.2012
http://primanota.ru/sum-41/back-where-i-belong-chords.htm
Привет, Гость.
Предлагаем пройти революционный курс по гитаре.
Подарок от PrimaNota.Ru, забирай!