PrimaNota.ru - самый крупный в мире бесплатный архив песенных текстов, аккордов, табулатур и нот


Sum 41 - A.N.I.C. - аккорды и текст, таба, бас-таба, видео

Регистрация Запомнить меня
Войти через:  Facebook Google Twitter Vk Yandex Mail.ru

Sum 41 - A.N.I.C. - аккорды и текст, таба, бас-таба, видео

Печатать
Просмотров: 245
Авторы: Sum 41

A.N.I.C.
Sum 41
(1)[e:-----------------------------------------------------------------------
B:-----------------------------------------------------------------------
G:-----------------------------------------------------------------------
D:---4-4-4-4-7-7-7-7-9-9-9-9-7-7-7-7--4-4-4-4-7-7-7-7-9-9-9-9-7-7-7-7----
A:---4-4-4-4-7-7-7-7-9-9-9-9-7-7-7-7--4-4-4-4-7-7-7-7-9-9-9-9-7-7-7-7----
E:---2-2-2-2-5-5-5-5-7-7-7-7-5-5-5-5--2-2-2-2-5-5-5-5-7-7-7-7-5-5-5-5----

(2)e:----------------------------------------
B:----------------------------------------
G:----------------------------------------
D:----------------------------------------
A:---4--xxxx-xxxx-7-9--4--xxxx-xxxx-7-9---
E:---2--xxxx-xxxx-5-7--2--xxxx-xxxx-5-7---

(2)e:-----------------------------------------------------------------------
B:-----------------------------------------------------------------------
G:-----------------------------------------------------------------------
D:---4-4-4-4-7-7-7-7-9-9-9-9-7-7-7-7--4-4-4-4-7-7-7-7-9-9-9-9-7-7-7-7----
A:---4-4-4-4-7-7-7-7-9-9-9-9-7-7-7-7--4-4-4-4-7-7-7-7-9-9-9-9-7-7-7-7----
E:---2-2-2-2-5-5-5-5-7-7-7-7-5-5-5-5--2-2-2-2-5-5-5-5-7-7-7-7-5-5-5-5----

(4)e:----------------------------------------
B:----------------------------------------
G:----------------------------------------
D:----------------------------------------
A:---4--xxxx-xxxx-7-9--4--xxxx-xxxx-7-9---
E:---2--xxxx-xxxx-5-7--2--xxxx-xxxx-5-7---]

-

УFunТ SHT!Ф
[E-----------------
B-----------------
G-----------------
D--3-3-3-3---4-4--
A--3-3-3-3---4-4--
E--1-1-1-1---2-2--]
УYou look like ass you smell like  so why are you such a dick...Ф
[E-------------------------------------
B-------------------------------------
G--------------------7-7-7-7--4-4-4-4- } X2
D--4-4-4-4--7-7-7-7--7-7-7-7--4-4-4-4-
A--4-4-4-4--7-7-7-7--5-5-5-5--2-2-2-2-
E--2-2-2-2--5-5-5-5-------------------]
УBound for agony, your lifeТs catastropheФ
[E-------------------------------------
B-------------------------------------
G-------------------------------------
D--2-x-x-x-x-2-x-x-x-x-2-x-x-x-x--4---
A--2-x-x-x-x-2-x-x-x-x-2-x-x-x-x--2-5-
E--0-x-x-x-x-0-x-x-x-x-0-x-x-x-x----3-]
УYou look like ass you smell like  so why are you such a dick...Ф
[E-------------------------------------
B-------------------------------------
G--------------------7-7-7-7--4-4-4-4- } X2
D--4-4-4-4--7-7-7-7--7-7-7-7--4-4-4-4-
A--4-4-4-4--7-7-7-7--5-5-5-5--2-2-2-2-
E--2-2-2-2--5-5-5-5-------------------]
УBound for agony, your lifeТs catastropheФ
[E-------------------------------------
B-------------------------------------
G-------------------------------------
D--2-x-x-x-x-2-x-x-x-x-2-x-x-x-x--4---
A--2-x-x-x-x-2-x-x-x-x-2-x-x-x-x--2-5-
E--0-x-x-x-x-0-x-x-x-x-0-x-x-x-x----3-]
ФYouТre an ASSHOLEEФ
[E-------------------------------------
B-------------------------------------
G--------------------7-7-7-7--4-4-4-4- } X4
D--4-4-4-4--7-7-7-7--7-7-7-7--4-4-4-4-
A--4-4-4-4--7-7-7-7--5-5-5-5--2-2-2-2-
E--2-2-2-2--5-5-5-5-------------------]
Добавлено: 20.02.2014
Другие материалы по этой песне:

Страница создана 28.04.2012
http://primanota.ru/sum-41/anic-chords.htm
Привет, Гость.
Предлагаем пройти революционный курс по гитаре.
Подарок от PrimaNota.Ru, забирай!