PrimaNota.ru - самый крупный в мире бесплатный архив песенных текстов, аккордов, табулатур и нот


Sultans - Chances Are - таба, видео

Регистрация Запомнить меня
Войти через:  Facebook Google Twitter Vk Yandex Mail.ru

Sultans - Chances Are - таба, видео

Печатать
Просмотров: 63
Chances are
  by the sultans
 from the album  Ghost Ship

 transcribed by chuck wolfe "this is all my own work blah blah blah...."


 verse
e|---------------------------------------------------------------------
b|---------------------------------------------------------------------
d|---------------------------------------------------------------------
g|---------4422--------------------------------------------------------
a|24442444-2200--------------------------------------------------------
e|02220222-------------------------------------------------------------



 prechorus
e|--------------------------------------------
b|--------------------------------------------
d|--------------------------------------------
g|-4422-66666666666---------------------------
a|-2200244444444444---------------------------
e|-----0--------------------------------------



 chorus
e|--------------------------------------------
b|--------------------------------------------
d|--------------------------------------------
g|---------6666666----------------------------
a|-666644444444444-2-4------------------------
e|-44442222--------0-2------------------------




 outro
e|--------------------------------------------
b|--------------------------------------------
d|-8-6^5^6-5\3/5------------------------------
g|---------------8-6-4------------------------
a|--------------------------------------------
e|--------------------------------------------
     
Добавлено: 23.10.2013
Другие материалы по этой песне:
  • Аккорды и текст

Страница создана 23.10.2013
http://primanota.ru/sultans/chances-are-chords.htm
Привет, Гость.
Предлагаем пройти революционный курс по гитаре.
Подарок от PrimaNota.Ru, забирай!