PrimaNota.ru - самый крупный в мире бесплатный архив песенных текстов, аккордов, табулатур и нот


Sultans Of Ping - Give Him A Ball And A Yard Of Grass - бас-таба, видео

Регистрация Запомнить меня
Войти через:  Facebook Google Twitter Vk Yandex Mail.ru

Sultans Of Ping - Give Him A Ball And A Yard Of Grass - бас-таба, видео

Печатать
Просмотров: 67
Уроки эстрадного вокала в Санкт-Петербурге
standard tuning. it sounds right to me.
yes its the vodafone advert.

enjoy.


G----------5-5---5------------------7--------|
D------------------5--3-3-7-3-5-5-5----------|
A-3-3-3-3------3----------------------5------|
E--------------------------------------------|

or.........

G-----5-------5---5------------------7-------|
D------------------5--3-3-7-3-5-5-5----------|
A-3-3--3-3------3----------------------5-----|
E--------------------------------------------|

and at 1:20 its......


G------7---------7---------5---------5-----|
D------------------------------------------| x4
A--5-5---5-5-5-5---5---3-3---3-3-3-3---3---|
E------------------------------------------|



and that is pretty much it.
Добавлено: 17.08.2013
Другие материалы по этой песне:
  • Аккорды и текст

Страница создана 17.08.2013
http://primanota.ru/sultans-of-ping/give-him-a-ball-and-a-yard-of-grass-chords.htm
Привет, Гость.
Предлагаем пройти революционный курс по гитаре.
Подарок от PrimaNota.Ru, забирай!