PrimaNota.ru - самый крупный в мире бесплатный архив песенных текстов, аккордов, табулатур и нот


Sulphur Aeon - Swallowed By The Oceans Tide - таба, видео

Регистрация Запомнить меня
Войти через:  Facebook Google Twitter Vk Yandex Mail.ru

Sulphur Aeon - Swallowed By The Oceans Tide - таба, видео

Печатать
Просмотров: 110
Уроки эстрадного вокала в Санкт-Петербурге
Авторы музыки: T. sirens
Авторы текста: M. incantations
-------------------------------------------------------------------------------
                 Sulphur Aeon - Swallowed By the Ocean's Tide
-------------------------------------------------------------------------------
Album: Swallowed By the Ocean's Tide (2013)
Tabbed by: Me
E-mail: charlie.planet@gmail.com

Tuning: B

Intro
e|-----------------------------------------|
B|---7------7------8------5----------------|
G|--8-8----8-8----9-9----6-6---------------|
D|-8---8--8---8--9---9--6---6--------------|
A|6------6------7------4-------------------|
E|-----------------------------------------|

Riff between verses
e|-----------------------------------------|
B|-----------------------------------------|
G|9/8----8---8/999999\8-----8--------------|
D|9/8----8---8/999999\8-----8--------------|
A|7/6----6---6/777777\6-----6--------------|
E|----000---------------000----------------|

Bridge riff, all tremolo picked
e|-----------------------------------------|
B|-----------------------------------------|
G|----------6------------------------------|
D|---8--6-8---8----------------------------|
A|/6----------------9--7-9-7-6-------------|
E|---------------7-------------------------|

Mini solo, play with lots of vibrato
Repeat, but without the first slide downwards
e|-------------------------------------------------------------------|
B|-------------------------------------------------------------------|
G|13\/13--15-15---13-15-16-18--16-16-15h16-15-15h16p15p13-15---------|
D|-------------------------------------------------------------------|
A|-------------------------------------------------------------------|
E|-------------------------------------------------------------------|



************************************

| /   slide up
| \   slide down
| h   hammer-on
| p   pull-off
| ~   vibrato
| +   harmonic
| x   Mute note
| b   Bend
| pb  Pre-bend
| br  Bend release
| pbr Pre-bend release
| brb Bend release bend

************************************
Добавлено: 09.12.2015
Вам также может быть интересно:
Другие материалы по этой песне:
  • Аккорды и текст

Страница создана 09.12.2015
http://primanota.ru/sulphur-aeon/swallowed-by-oceans-tide-chords.htm
Привет, Гость.
Предлагаем пройти революционный курс по гитаре.
Подарок от PrimaNota.Ru, забирай!