PrimaNota.ru - самый крупный в мире бесплатный архив песенных текстов, аккордов, табулатур и нот


Sulphur Aeon - Incantation - таба, видео

Регистрация Запомнить меня
Войти через:  Facebook Google Twitter Vk Yandex Mail.ru

Sulphur Aeon - Incantation - таба, видео

Печатать
Просмотров: 75
Авторы музыки: T. sirens
Авторы текста: M. incantations
-------------------------------------------------------------------------------
                          Sulphur Aeon - Incantation
-------------------------------------------------------------------------------
Album: Swallowed By the Ocean's Tide (2013)
Tabbed by: Me
E-mail: charlie.planet@gmail.com

Tuning: B

Intro
e|--------------------------------------------------|
B|--------------------------------------------------|
G|----8--------6--6/8------8--8/9-9-9\6-------------|
D|----8--------6--6/8------8--8/9-9-9\6-------------|
A|----6--------4--4/6------6--6/7-7-7\4-------------|
E|000-----000-----------000-------------------------|

Last guitar part before the verse is a little bit different
e|-----------------------------------|
B|-----------------------------------|
G|----8--8/9x9-6/8-------------------|
D|----8--8/9x9-6/8-------------------|
A|----6--6/7x7-4/6-------------------|
E|000--------------------------------|

Verse
Note: The 696 drops out sometimes to let the second guitar come through
e|---------------------------------------------------|
B|---------------------------------------------------|
G|8----8-8/6/9/8------666999666----------------------|
D|8-8--8-8/6/9/8--8----------------------------------|
A|6-6--6-6/4/7/6--6----------------------------------|
E|--6-------------6----------------------------------|

Second verse guitar
e|------------------------------------------|
B|------------------------------------------|
G|------------------------------------------|
D|------------------------------------------|
A|------------------------------------------|
E|00000000000000000000333555333222----------|

Chorus
Couldn't tab the third guitar as it's nearly inaudible
e|----------------------------------------------------------------------------|
B|----------------------------------------------------------------------------|
G|-------8811111010-66-888111111101010--888101010--68881111111111111010881010-|
D|996688----------------------------------------------------------------------|
A|----------------------------------------------------------------------------|
E|----------------------------------------------------------------------------|
A note about the pinch harmonic: Find what works on your own guitar on diffirent
parts of the string. Both 8 and 11 sound fine to me, but it depends on your strings and guitar.

Second guitar during chorus
e|----------------------------------------------------------|
B|----------------------------------------------------------|
G|8--1011-15-13--161615-------------------------------------|
D|x--x-x--x--x---x-x-x--------------------------------------|
A|6--8-9--13-11--141413-------------------------------------|
E|----------------------------------------------------------|

After Chorus
e|---------------------------------------------------------------------------|
B|---------------------------------------------------------------------------|
G|8--8/6/4-10-6/8--10/11-8/10------------------------------------------------|
D|8--8/6/4-10-6/8--10/11-8/10------------------------------------------------|
A|6--6/4/2-8--4/6--8//9--6/8-------------------------------------------------|
E|---------------------------------------------------------------------------|

"Hear me , oh titan of the sea" part
Note: every note here is tremolo picked
e|---------------------------------------------------------------------------|
B|---------------------------------------------------------------------------|
G|8--1011-15-13--161615--15-15-15-15-15-15-----------------------------------|
D|x--x-x--x--x---x-x-x---x--x--x--x--x--x------------------------------------|
A|6--8-9--13-11--141413--13-13-13-13-13-13-----------------------------------|
E|---------------------------------------------------------------------------|

That's about as far as I got. I will certainly be updating this one, simply because I had tons of fun
tabbing it and it is one of my favorite songs.


************************************

| /   slide up
| \   slide down
| h   hammer-on
| p   pull-off
| ~   vibrato
| +   harmonic
| x   Mute note
| b   Bend
| pb  Pre-bend
| br  Bend release
| pbr Pre-bend release
| brb Bend release bend

************************************
Добавлено: 09.12.2015
Другие материалы по этой песне:
  • Аккорды и текст

Страница создана 09.12.2015
http://primanota.ru/sulphur-aeon/incantation-chords.htm
Привет, Гость.
Предлагаем пройти революционный курс по гитаре.
Подарок от PrimaNota.Ru, забирай!