PrimaNota.ru - самый крупный в мире бесплатный архив песенных текстов, аккордов, табулатур и нот


Sulphur Aeon - The Devils Gorge - таба, видео

Регистрация Запомнить меня
Войти через:  Facebook Google Twitter Vk Yandex Mail.ru

Sulphur Aeon - The Devils Gorge - таба, видео

Печатать
Просмотров: 99
Уроки эстрадного вокала в Санкт-Петербурге
Авторы музыки: T. sirens
Авторы текста: Philipp Schulte
-------------------------------------------------------------------------------
                       Sulphur Aeon - the Devil's Gorge
-------------------------------------------------------------------------------
Album: Swallowed By the Ocean's Tide (2013)
Tabbed by: Me
E-mail: charlie.planet@gmail.com

Tuning: B

Intro Guitar I
e|-------------------------------|
B|-------------------------------|
G|-------------------------------|
D|-------------------------------|
A|-------------------------------|
E|1111111111002244---------------|

Guitar II, repeat once
e|---------------------------------------------------------------------------|
B|---------------------------------------------------------------------------|
G|---------------------------------------------------------------------------|
D|4-3--4-3-4-6-4-3--4-3-4-6-7-6--7-6-7-9-109--7-6----------------------------|
A|4-3--4-3-4-6-4-3--4-3-4-6-7-6--7-6-7-9-109--7-6----------------------------|
E|2-1--2-1-2-4-2-1--2-1-2-4-5-4--5-4-5-7-8-7--5-4----------------------------|

Verse
e|---------------------------------------------------------------------------|
B|---------------------------------------------------------------------------|
G|---------------------------------------------------------------------------|
D|---------------------------------------------------------------------------|
A|---------------------------------------------------------------------------|
E|221111111122112244221122112244554455445577887755444444---------------------|

Chorus
e|-------------------------------------------|
B|-------------------------------------------|
G|88--88-8--9--------------------------------|
D|88--88-8---8-------------------------------|
A|66--66-6----6------------------------------|
E|--00--0--0----66666666-0-------------------|

End of chorus; "Sanc-tum god for-bid" part
Goes after the normal 066606606 above
e|---------------------------------------------|
B|---------------------------------------------|
G|---9-----------------------------------------|
D|------8--------------------------------------|
A|---------6-----------------------------------|
E|0--------------------------------------------|

Lead after chorus
e|---------------------------------------------------------------------------|
B|x98-x98-x1110-x1110-x98-x98-x1110-89<9>------------------------------------|
G|---------------------------------------------------------------------------|
D|---------------------------------------------------------------------------|
A|---------------------------------------------------------------------------|
E|---------------------------------------------------------------------------|

Before bridge
e|------------------------------------------------------|
B|this-x4-----------------------------------------------|
G|--------also-x4---------------------------------------|
D|2---2---4---4-----------------------------------------|
A|2---2---4---4-----------------------------------------|
E|0000000022222222----444555555555555444444-------------|

Bridge, all tremolo picked
e|----------------------------------------------------------------------|
B|----------------------------------------------------------------------|
G|----------------------------------------------------------------------|
D|--8-7--8-7---10-------------------------------------------------------|
A|0----9-----9-------6-5---6-5--8---------------------------------------|
E|-----------------0-----7----7-----------------------------------------|
|
Leads before solo, lots of sliding and vibrato
e|---------------------------------------------------------------------------|
B|---------------------------------------------------------------------------|
G|8--11---13-16--10-13---8--11--10-13--8-11----------------------------------|
D|---------------------------------------------------------------------------|
A|---------------------------------------------------------------------------|
E|---------------------------------------------------------------------------|

Solo
e|---------------------------------------------|
B|-------------------23-21-19-21-19-18-19------|
G|20-20-23-20-18-20~----------------------18---|
D|---------------------------------------------|
A|---------------------------------------------|
E|---------------------------------------------|

e|---------------------------------------------|
B|-------------------23-21-19-21~-21/24-24-----|
G|20-20-23-20-18-20~---------------------------|
D|---------------------------------------------|
A|---------------------------------------------|
E|---------------------------------------------|


************************************

| /   slide up
| \   slide down
| h   hammer-on
| p   pull-off
| ~   vibrato
| +   harmonic
| x   Mute note
| b   Bend
| pb  Pre-bend
| br  Bend release
| pbr Pre-bend release
| brb Bend release bend

************************************
Добавлено: 09.12.2015
Другие материалы по этой песне:
  • Аккорды и текст

Страница создана 09.12.2015
http://primanota.ru/sulphur-aeon/devils-gorge-chords.htm
Привет, Гость.
Предлагаем пройти революционный курс по гитаре.
Подарок от PrimaNota.Ru, забирай!