PrimaNota.ru - самый крупный в мире бесплатный архив песенных текстов, аккордов, табулатур и нот


Sukilove - As Long As I Survive Tonight - таба, видео

Регистрация Запомнить меня
Войти через:  Facebook Google Twitter Vk Yandex Mail.ru

Sukilove - As Long As I Survive Tonight - таба, видео

Печатать
Просмотров: 63
As long as I survive tonight ­ guitarTAB
(tuning : D A D G B E)

Riff :
---------------------------------------
---------------------------------------
------------0-2-------------0-2-0----
----4-----4---------4-----4-------4--
--0-----0---------0-----0-------------
0-----0---------0-----0---------------


Chorus :
--------------------------------------
-------------------------------------
----4-----4---------2-------0------
--5-----5-----5---4-------2-------
--------------------------------------
5-----5-----5---4-----4-2-----2-- ý followed by riff


Ending Second and third chorus :
play chorus +
----------------------------------------
----------------------------------------
----6-----6---------7-----2---------4---
--7-----7-----7---8-----3---3-----5---5-
----------------------------------------
7-----7-----7---8-----3-------3-5-------

Bridge : same as riff but with augmented violins and noise on top
End chord : the 0-0-4 strings at the same time.
Good luck.
     
Добавлено: 07.09.2013
Другие материалы по этой песне:
  • Аккорды и текст

Страница создана 07.09.2013
http://primanota.ru/sukilove/as-long-as-i-survive-tonight-chords.htm
Привет, Гость.
Предлагаем пройти революционный курс по гитаре.
Подарок от PrimaNota.Ru, забирай!