PrimaNota.ru - самый крупный в мире бесплатный архив песенных текстов, аккордов, табулатур и нот


Suicide Silence - Distorted Thought Of Addiction - текст песни, таба, видео

Регистрация Запомнить меня
Войти через:  Facebook Google Twitter Vk Yandex Mail.ru

Suicide Silence - Distorted Thought Of Addiction - текст песни, таба, видео

Печатать
Просмотров: 181
-------------------------------------------------------------------------------
                Distorted Thought Of Addiction - Suicide Silence
-------------------------------------------------------------------------------
Tabbed by: Samskeyti

Tuning: AEADF#B (6-string tuning for 7)

Intro:

a:
|----------|
|----------|
|----------|
|-0-1-0----|
|-0-1-0-3*-|
|-0-1-0----| x4
  . . .

b:
|----------|
|----------|
|----------|
|-0-1-0----|
|-0-1-0----|
|-0-1-0-3*-| x1
  . . .
Intro A x4
Intro B x1
Intro A x1

Riff 1:

|-----------------------|
|-----------------------|
|-----------------------|
|-----------------------|
|-----------------------|
|-0044110011000011------| x2
Tremolo picking.

Riff 2:

|----------|
|----------|
|----------|
|-0-1-0----|
|-0-1-0-3*-|
|-0-1-0----|
  . . .

Riff 1 x2
Riff 2 x1
Riff 1 x2
Riff 2 x1

Riff 3:

|----------------------|
|----------------------|
|----------------------|
|--3-------------------|
|----5-4-5-4--4--------|
|00-0-0-0-0-00---------| x6
 .. . . . . ..        

Riff 4:

|-----------------|
|-----------------|
|-----------------|
|-----------------|
|-----------------|
|-000000000000000-|
Tremolo pick the A string open for a couple measures.

Breakdown:
You can figure it out. It's all open and palm muted.
Listen to song for exact rhythm.

Riff 5:

|---------|
|---------|
|---------|
|-4-3-1---|
|-4-3-1---|
|-4-3-1---|
  . . .

Riff 6:

|--------------------|
|--------------------|
|--------------------|
|-------333----------|
|-555------444-555---|
|----000-------------|
             
Tremolo picked.

Riff 7:

|--------|
|--------|
|--------|
|-3------|
|--5-4---|
|-----0--| x16
      .

Riff 8:

|------------|
|------------|
|------3~----|
|-0~---x~----|
|-0~---1-----|
|-0~---------| x4

Riff 9:

|------------|
|------------|
|--------3---|
|-1-3-1--x---|
|-1-3-1--1---|
|-1-3-1------| x7
  . . .

Riff 10:

a:
|------------|
|------------|
|------------|
|-1-3-1------|
|-1-3-1--3*--|
|-1-3-1------|
  . . .

b:
|------------|
|------------|
|------------|
|-1-3-1------|
|-1-3-1------|
|-1-3-1--3*--|
  . . .

Riff 11:

|---------------|
|---------------|
|---------------|
|-0~-0~-0~------|
|-0~-0~-0~------|
|-0~-0~-0-------|

Riff 12:

|-------------------------------------------|
|-------------------------------------------|
|-------------------------------------------|
|----------------------77-------------------|
|----558899---998855-----9955---55----------|
|-000------888------444------44----3-1------| x6
Tremolo picked. The notes on the A string are 
quick triplets.

On the last time, 
hit an open chord and let it ring.

Riff 13:

|--------------------------|
|--------------------------|
|--------------------------|
|-0-4-1-0-000-000-000------|
|-0-4-1-0-000-000-000------|
|-0-4-1-0-000-000-000--3*--| x7
  . . . . ... ... ...

|-----------------------|
|-----------------------|
|-----------------------|
|-----------------------|
|-----------------------|
|-0044110011000011------|
Tremolo picking.


Please submit any corrections or additions. 
Thanks.
Добавлено: 22.03.2012
Другие материалы по этой песне:

Страница создана 22.03.2012
http://primanota.ru/suicide-silence/distorted-thought-of-addiction-chords.htm
Привет, Гость.
Предлагаем пройти революционный курс по гитаре.
Подарок от PrimaNota.Ru, забирай!