PrimaNota.ru - самый крупный в мире бесплатный архив песенных текстов, аккордов, табулатур и нот


Suicide Machines - The Change - бас-таба, видео

Регистрация Запомнить меня
Войти через:  Facebook Google Twitter Vk Yandex Mail.ru

Suicide Machines - The Change - бас-таба, видео

Печатать
Просмотров: 50
-------------------------------------------------------------------------------
                             The Change - Suicide Machines
-------------------------------------------------------------------------------
Tabbed by: 
E-mail: 

Tuning:EADG

Intro (guitar)
G|-------------4-7-5----10-10-10-9-7-5--------4-7-5---10-10-10-9-7-5---------|
D|--------5555---------------------------5555--------------------------------|
A|---------------------------------------------------------------------------|
E|---------------------------------------------------------------------------|

Intro 
G|---------------------------------------------------------------------------|
D|------------------------------------------------------------------4/5------|
A|---------------------------------------------------------------------------|
E|--3------------------------------------------------------------------------|

Chorus
G|---------------------------------------------------------------------------|
D|---------------------------------------------------------------------------|
A|------3-3-----------------3-3----------------------------------------------|
E|----------3-3--1-1-1-1--------3-3--1-1-1-1---------------------------------|

Verse
G|-----------------------------------------------------------33-22-------------------------|
D|---------22-33-22---------------22-3------------22-33-22---------33-22-0-3-2-3-5-3-2-0---|
A|--0-033----------55-33----0-033--------3--0-033----------55------------------------------|
E|------------------------------------333--------------------------------------------------|

"As time goes on..."
G|-----------333--22222222-------------------|
D|--------------------------2222-3333-------o|
A|------------------------------------------o|
E|----555------------------------------------|

Break    (follow guitar after after two times)
G|-----------------4-7-5--10-10-10--9-7-5------4-7-5--10-10-10-9-7-5---------|
D|----4/5------555---------------------------555-----------------------------|
A|---------------------------------------------------------------------------|
E|---------------------------------------------------------------------------|

End
G|--------------------------------------------gu------------------------------|
D|----------------------------------------------it----------------------------|
A|--3-3-------------3-3---------------------------ar--3---3-------------------|
E|------3-3-1-1-1-1-----3-3-1-1-1-1---1-1-1-1---------------------------------|


| /  slide up
| \  slide down
| h  hammer-on
| p  pull-off
| ~  vibrato
| +  harmonic
| x  Mute note
===============================================================================
Добавлено: 25.08.2013
Другие материалы по этой песне:
  • Аккорды и текст

Страница создана 25.08.2013
http://primanota.ru/suicide-machines/the-change-chords.htm
Привет, Гость.
Предлагаем пройти революционный курс по гитаре.
Подарок от PrimaNota.Ru, забирай!