PrimaNota.ru - самый крупный в мире бесплатный архив песенных текстов, аккордов, табулатур и нот


Suicide Machines - Speak No Evil - текст песни, бас-таба, видео

Регистрация Запомнить меня
Войти через:  Facebook Google Twitter Vk Yandex Mail.ru

Suicide Machines - Speak No Evil - текст песни, бас-таба, видео

Печатать
Просмотров: 77
Artist - Suicide machines
Song - Speak no evil
Album - Battle hymns
Year of release - 1998

Okay, i am completely sure that there are no mistakes in this tabulature, since the song
is very easy to play. Just figure yourself how often to play a note. That is all.

Oops, i noticed i turned it upside down, whatever, too lazy to fix it.

* = strum


Drop in (0:06)


E|------------------------------------------|
A|------5---3---5---------------------------|
D|------------------------------------------|
G|------------------------------------------|

Verse

E|------------------------------------------|
A|---7*----5-3-5*-----2*-3*-5*--------------|    x2
D|------------------------------------------|
G|------------------------------------------|


Chorus (yeah it was hard to get ahead)

E|---3*------------------0*-----3-5---------------|
A|--------2-3-0*----2-3--------------2-3*-2*------|  x2
D|------------------------------------------------|
G|------------------------------------------------|

Bridge (Yeah i know who i am)

E|------------------------------------------|
A|----0*---2*-------------------------------|
D|------------------------------------------| x4
G|------------------------------------------|

Order

Drop in
Verse
Chorus
Bridge
Verse
Chorus
Bridge
Verse
Добавлено: 03.07.2013
Другие материалы по этой песне:
  • Аккорды и текст

Страница создана 03.07.2013
http://primanota.ru/suicide-machines/speak-no-evil-chords.htm
Привет, Гость.
Предлагаем пройти революционный курс по гитаре.
Подарок от PrimaNota.Ru, забирай!