PrimaNota.ru - самый крупный в мире бесплатный архив песенных текстов, аккордов, табулатур и нот


Suicide Machines - Shes Not Worth It - таба, видео

Регистрация Запомнить меня
Войти через:  Facebook Google Twitter Vk Yandex Mail.ru

Suicide Machines - Shes Not Worth It - таба, видео

Печатать
Просмотров: 102
Уроки эстрадного вокала в Санкт-Петербурге
-------------------------------------------------------------------------------
			     She's Not Worth It - Suicide Machines
-------------------------------------------------------------------------------
Tabbed by: The one and only ZiR23
Email:z1r_23@hotmail.com

Tuning:Standard

work out the timing yourself

e|---------------------------------------------------------------------------|
B|---------------------------------------------------------------------------|
G|---------------------------------------------------------------------------|
D|-9--------7-7-7------------repeat4x----------------------------------------|
A|-7-x6-----5-5-5------------------------------------------------------------|
E|-0-----0--0-0-0------------------------------------------------------------|
         *                                       * = palm muted

e|---------------------------------------------------------------------------|
B|---------------------------------------------------------------------------|
G|---------------------------------------------------------------------------|
D|----6-9-6-7-6---------7-7-7------------------------------------------------|
A|--7-----------7-------5-5-5------------repeat4x----------------------------|
E|-------------------0--0-0-0------------------------------------------------|
                     *
e|---------------------------------------------------------------------------|
B|---------------------------------------------------------------------------|
G|---------------------------------------------------------------------------|
D|------2-3-5-3-2------------------------------------------------------------|
A|--3-3-----------3----5-5----------repeat4x---------------------------------|
E|---------------------3-3---------------------------------------------------|


Chorus
e|---------------------------------------------------------------------------|
B|---------------------------------------------------------------------------|
G|---------------------------------------------------------------------------|
D|----------------12--9-9h10p9-----------------------------------------------|
A|-10-x-x--12-x-x-10------------12-10-------repeat4x-------------------------|
E|-8--x-x--10-x-x------------------------------------------------------------|

e|---------------------------------------------------------------------------|
B|---------------------------------------------------------------------------|
G|---------------------------------------------------------------------------|
D|-5--5-5------------12------------repeat4x----------------------------------|
A|-3--3-3--5--5-5----10--x8--------------------------------------------------|
E|---------3--3-3------------------------------------------------------------|

 THAT'S IT!! pretty good huh? i'm willing to bet it's 99% accurate.
Добавлено: 06.11.2013
Другие материалы по этой песне:
  • Аккорды и текст

Страница создана 06.11.2013
http://primanota.ru/suicide-machines/shes-not-worth-it-chords.htm
Привет, Гость.
Предлагаем пройти революционный курс по гитаре.
Подарок от PrimaNota.Ru, забирай!