PrimaNota.ru - самый крупный в мире бесплатный архив песенных текстов, аккордов, табулатур и нот


Suicide Machines - Seized Up - текст песни, таба, видео

Регистрация Запомнить меня
Войти через:  Facebook Google Twitter Vk Yandex Mail.ru

Suicide Machines - Seized Up - текст песни, таба, видео

Печатать
Просмотров: 67
Seized Up - The Suicide Machines

Tabbed by: Frank
Email: phrank496 [at] gmail [dot] com

Tuning: Standard

Intro                      x5
e|--------------------------|---------------|
B|--------------------------|---------------|
G|--------------------------|--77-5-7-7-----|
D|--------------------------|--77-5-7-7-7~--|
A|--10101010-1212-77777777--|--55-3-5-5-7~--|
E|---8-8-8-8-1010-55555555--|-----------5~--|

Pre-Verse
                    x3
e|------------------|---------------|
B|------------------|---------------|
G|------------------|------77-7-9~--|
D|------777---------|--555-77-7-9~--|
A|--555-555-7-xx77--|--555-55-5-7~--|
E|--333-----5-xx55--|--333----------|

Verse
e|----------------------------------|
B|----------------------------------|
G|----------555-77----------555-7-7-|
D|--777-555-555-77--777-555-555-7-7-| x4
A|--777-555-333-55--777-555-333-5-5-|
E|--555-333---------555-333---------|

Pre/Post Chorus
e|------------------------|
B|------------------------|
G|--------77777-----------|
D|--55555-77777-77777777--|
A|--55555-55555-77777777--|
E|--33333-------55555555--|

Chorus
e|-------------------|
B|-------------------|
G|------77-----------|
D|--55--77-----------| x4
A|--55--55-77777777--|
E|--33-----55555555--|

Pre/Post Chorus
e|------------------------|
B|------------------------|
G|--------77777-----------|
D|--55555-77777-77777777--|
A|--55555-55555-77777777--|
E|--33333-------55555555--|


Verse
Pre-Chorus
Chorus

Post-Chorus 2
e|--------------|
B|--------------|
G|------77------|
D|--55--77--7~--|
A|--55--55--7~--|
E|--33------5~--|

Intro
Pre-Verse
Verse
Chorus

End with Post-Chorus 2
e|--------------|
B|--------------|
G|------77------|
D|--55--77--7~--|
A|--55--55--7~--|
E|--33------5~--|

END

===============================================================================
Добавлено: 18.08.2013
Другие материалы по этой песне:
  • Аккорды и текст

Страница создана 18.08.2013
http://primanota.ru/suicide-machines/seized-up-chords.htm
Привет, Гость.
Предлагаем пройти революционный курс по гитаре.
Подарок от PrimaNota.Ru, забирай!