PrimaNota.ru - самый крупный в мире бесплатный архив песенных текстов, аккордов, табулатур и нот


Suicide Machines - Our Time - текст песни, бас-таба, драм-таба, видео

Регистрация Запомнить меня
Войти через:  Facebook Google Twitter Vk Yandex Mail.ru

Suicide Machines - Our Time - текст песни, бас-таба, драм-таба, видео

Печатать
Просмотров: 71
Suicide Machines
Bass Tablature for Our Time

Intro: (Repeat 1st half 2x, then 2nd half, Repeat all 1x)
G:--------------------*--------------------------
D:--------------------*--------------------------
A:-5--5--5--xx--------*-----------2-----------2-4
E:-------------3---5--*3--3--3--5---5--5-5--5----

Verse:
G:----------------------------
D:---7-5-4--------------------
A:5--------7-5-4----2-5----4-7
E----------------3------5-----

"Well it seems...": (Repeat 1x, 1st ending then 2nd)
G:--------------------------------------------------------
D:----4-7----4-7------------------4-7----4-7--------------
A:-5------5---------4-7----4-7-5------5---------2-5----2-5
E:---------------5------5--------------------3------3-----

1st ending to "Well it seems:
G:--------------
D:--------------
A:---2-5----2-5-
E:3------3------

2nd ending to "Well it seems"
G:---------------
D:---------9-----
A:7---10-------10
E:---------------

Chorus:(Repeat 1x)
G:-----------------------------------------------
D:------------------7-5-4------------------------
A:5-5-5-5-5-5-5-5---------7-5-4------------------
E:----------------5-------------5-7-7-7-7-7-7-7-7

Chorus continued:
G:---------------
D:---------------
A:---------------
E:3-3-3-3-3-3-3-3

"Do we have a...":
G:-----------------------------------------------
D:-----------------------------------------------
A:-----------------------------------------------
E:2--2--2--2--3--3--3--3--5--5--5--5--5-5-5--5--5

Figured out by (poly@juno.com) and Fidget (hoepfner@lcm.macomb.lib.mi.us)



Добавлено: 22.11.2013
Другие материалы по этой песне:
  • Аккорды и текст

Страница создана 28.10.2013
http://primanota.ru/suicide-machines/our-time-chords.htm
Привет, Гость.
Предлагаем пройти революционный курс по гитаре.
Подарок от PrimaNota.Ru, забирай!