PrimaNota.ru - самый крупный в мире бесплатный архив песенных текстов, аккордов, табулатур и нот


Suicide Machines - Did You Ever Get A Feeling Of Dread - бас-таба, видео

Регистрация Запомнить меня
Войти через:  Facebook Google Twitter Vk Yandex Mail.ru

Suicide Machines - Did You Ever Get A Feeling Of Dread - бас-таба, видео

Печатать
Просмотров: 66
~=let ring
h=hammer on
p=pull off
/=slide up
t=tenth fret

Intro
g|--------|
d|--------|
a|-5~-----|
e|--------|

Chorus
g|---------------                  g|-----------------|
d|---------------    or sometimes  d|----------556688-|
a|-----585666655-                  a|-----58566-------|
e|-66-6---------8                  e|-66-6------------|

Verse
g|----------------------|
d|-----3h5--------------|
a|-3--3---6~-5~-5556565-|
e|----------------------|

g|--------------------|
d|-----3h5------------|
a|-3--3---6~-5~-------|
e|--------------33-55-|

Bridge
g|-------------------------------|
d|-------8-7h8p7-7--5------------|
a|-----8--------------8-6-5-6-8\-|
e|-6~-8--------------------------|

g|-----7----t-7----t--|
d|----7----t----7-----|t-t
a|---5--6/8--5-5-8----|
e|-33-----------------|

End(after chorus)
g|-----          g|-----|
d|--8--          d|---8-|
a|-6--5 x3 then  a|-----|
e|---8-          e|-6---|
Добавлено: 13.08.2013
Другие материалы по этой песне:
  • Аккорды и текст

Страница создана 13.08.2013
http://primanota.ru/suicide-machines/did-you-ever-get-a-feeling-of-dread-chords.htm
Привет, Гость.
Предлагаем пройти революционный курс по гитаре.
Подарок от PrimaNota.Ru, забирай!