PrimaNota.ru - самый крупный в мире бесплатный архив песенных текстов, аккордов, табулатур и нот


Suicide Machines - Black White World - таба, видео

Регистрация Запомнить меня
Войти через:  Facebook Google Twitter Vk Yandex Mail.ru

Suicide Machines - Black White World - таба, видео

Печатать
Просмотров: 85
-----------------------------------------------------------------------------
		   Black & White World - Suicide Machines
-----------------------------------------------------------------------------

I've been looking at this song, and i couldn't find a good tab for it so i did this. I'm 
positive it's all right.

Tabbed by: FlawlessMullet
Tuning: Standard

x = Mute Note
~ = Let Ring


Intro:

e|-5--5--5--5--5-5-5-5-5-5--|
B|-6--6--6--6--6-6-6-6-6-6--|
G|-7--7--7--7--7-7-7-7-7-7--|
D|-7--7--7--7--7-7-7-7-7-7--|
A|-5--5--5--5--5-5-5-5-5-5--|
E|-x--x--x--x--x-x-x-x-x-x--|


These are the chords that come in, played with ska strumming

e|--6-----x-----x-----x-----|
B|--6----10-----8----10-----|
G|--7----10-----8----10-----| x2
D|--8----10-----8----10-----|
A|--8-----x-----x-----x-----|
E|--6-----x-----x-----x-----|


Verse:   (These are just the chords, you can figure out the strumming)

e|--------------------------------------------------------------------------|
B|--------------------------------------------------------------------------|
G|------10----8~---------10----8~---------10----8---10--------10----8---10--|
D|--8---10----8~-----8---10----8~-----8---10----8---10----8---10----8---10--|
A|--8----8----6~-----8----8----6~-----8----8----6----8----8----8----6----8--|
E|--6----------------6----------------6-------------------6-----------------|

Chorus:

e|-5--5--x--x--5--5--x--x--5--5--x--x--5--5--x--x----|
B|-6--6--8--8--6--6--8--8--6--6--8--8--6--6--8--10---|
G|-7--7--8--8--7--7--8--8--7--7--8--8--7--7--8--10---|
D|-7--7--8--8--7--7--8--8--7--7--8--8--7--7--8--10---|
A|-5--5--6--6--5--5--6--6--5--5--6--6--5--5--6--8----|
E|-x--x--x--x--x--x--x--x--x--x--x--x--x--x--x--x----|

Then repeat from the chords after the intro on.

(1:14, after chorus is played again, these chords come in with ska strumming)

e|-x---6---5---x---x---x---6---5---x---x---6~----|
B|-8---6---6---8---10--8---6---6---8---10--6~----|
G|-8---7---7---8---10--8---7---7---8---10--7~----|  Then...
D|-8---8---7---8---10--8---8---7---8---10--8~----|
A|-6---8---5---6---8---6---8---5---6---8---8~----|
E|-x---6---x---x---x---x---6---x---x---x---6~----|

He comes in playing these octaves

e|-----------------------|
B|-----------------------|
G|--15---14---12---10----|
D|---x----x----x----x----|
A|--13---12---10----8----|
E|-----------------------|

Outro:

e|-----Repeat 4x---|------------|
B|-----------------|--End on----|
G|-----10--8---10--|------------|
D|--8--10--8---10--|----8-------|
A|--8--8---6---8---|----6-------|
E|--6--------------|----6-------|

There you go!
=============================================================================
Добавлено: 13.10.2013
Другие материалы по этой песне:
  • Аккорды и текст

Страница создана 13.10.2013
http://primanota.ru/suicide-machines/black-white-world-chords.htm
Привет, Гость.
Предлагаем пройти революционный курс по гитаре.
Подарок от PrimaNota.Ru, забирай!