PrimaNota.ru - самый крупный в мире бесплатный архив песенных текстов, аккордов, табулатур и нот


Suicidal Tendencies - Scream Out - текст песни, таба, бас-таба, видео

Регистрация Запомнить меня
Войти через:  Facebook Google Twitter Vk Yandex Mail.ru

Suicidal Tendencies - Scream Out - текст песни, таба, бас-таба, видео

Печатать
Просмотров: 152
Artist: Suicidal Tendencies
Piece: Scream Out
Instrument: Guitar

Intro

E:----------------------------------|
B:----------------------------------|
G:----------------------------------|
D:--4---4---4---4-------------------|
A:--2---2---2---2-------------------|
E:----------------------------------|


Verse

E:--------------------------------------------|
B:--------------------------------------------|
G:--------------------------------------------|
D:---------8-8-8---5-/-7--5-------------------|
A:--7-7-7--6-6-6---3-/-5--3--5-5-5------------|
E:--5-5-5---------------------3-3-3-----------|

Chorus

    Scream out , let it out
E:----------------------------------------------|
B:----------------------------------------------|
G:----------------------------------------------|
D:----7-7-7-------7-7-7----7-/-5--7-8-8-8-------|
A:----5-5-5-------5-5-5----5-/-3--5-6-6-6-------|
E:----------------------------------------------|

Outro

E:-------------------------------------|
B:-------------------------------------|
G:-------------------------------------|
D:--------8-8----5-/-7--5--------------|
A:--7-7---6-6----3-/-5--3--------------|
E:--5-5--------------------------------|

End
Добавлено: 11.11.2015
Другие материалы по этой песне:

Страница создана 02.03.2012
http://primanota.ru/suicidal-tendencies/scream-out-chords.htm
Привет, Гость.
Предлагаем пройти революционный курс по гитаре.
Подарок от PrimaNota.Ru, забирай!