PrimaNota.ru - самый крупный в мире бесплатный архив песенных текстов, аккордов, табулатур и нот


Suicidal Tendencies - Goin Breakdown - аккорды и текст, таба, видео

Регистрация Запомнить меня
Войти через:  Facebook Google Twitter Vk Yandex Mail.ru

Suicidal Tendencies - Goin Breakdown - аккорды и текст, таба, видео

Печатать
Просмотров: 115
Goin Breakdown
Suicidal Tendencies
		   (Message inbox:171)
 -- using template mhl.format --


Replied: Mon, 22 Nov 93 08:45:57 GMT
Replied: Matthew Johnson  johno@deakin.edu.au>
X-Authentication-Warning: sol.ccs.deakin.edu.au: Host eros.ccs.deakin.edu.au di
     ***dn't use HELO protocol

Goin' Breakdown - Suicidal Tendencies

Here is pretty much how I believe the riffs to this song go.
'nuff said.....

e---------------------------------------------------------------------
b---------------------------------------------------------------------
g---------------------------------------------------------------------
d------2-----5-----4-----3--------------------------------------------
a------2-----5-----4-----3-------2------------------------------------
e--0-0-0-0-0-3-0-0-2-0-0-1-0-0-1--------------------------------------

e---------------------------------------------------------------------
b---------------------------------------------------------------------
g--7-------5--5-------------------------------------------------------
d--7---5---5--5---3-3-------2-----3---0-----2--3-2-0-2----------------
a--5-x-5-x-3--3-x-3-3-------2-----3---0-----2--3-2-0-2----------------
e----x-3-x------x-1-1---0-0-0-0-0---0---0-0-0-------------------------

e---------------------------------------------------------------------
b---------------------------------------------------------------------
g---------------------------------------------------------------------
d------8-----8-----8\7-5/7-----5/7-------8-----8-7----5-4----4-5-4----
a------8-----8-----8\7-5/7-----5/7-------8-----8-7----5-4----4-5-4----
e--0-0-6-0-0-6-0-0-6\5-3/5-x-0-3/5---0-0-6-0-0-6-5--0-3-2--0-2-3-2----

e---------------------------------------------------------------------
b---------------------------------------------------------------------
g---------------------------------------------------------------------
d------4-----5---2-----4-5-4-2-4--------------------------------------
a------4-----5---2---4-4-5-4-2-4--------------------------------------
e--2-2-2-2-2-3-2-0-0-2-2-3-2-0-2--------------------------------------

Matthew Johnson.     
Добавлено: 15.11.2013
Другие материалы по этой песне:
  • Аккорды и текст

Страница создана 15.04.2012
http://primanota.ru/suicidal-tendencies/goin-breakdown-chords.htm
Привет, Гость.
Предлагаем пройти революционный курс по гитаре.
Подарок от PrimaNota.Ru, забирай!