PrimaNota.ru - самый крупный в мире бесплатный архив песенных текстов, аккордов, табулатур и нот


Suicidal Angels - Chaos The Curse Burning Inside - таба, видео

Регистрация Запомнить меня
Войти через:  Facebook Google Twitter Vk Yandex Mail.ru

Suicidal Angels - Chaos The Curse Burning Inside - таба, видео

Печатать
Просмотров: 76
Artist: Suicidal Angels
Song: Chaos (The Curse Burning Inside)
Album: Bloodbath
Year: 2012
Tabbed by: antichris666

Tuning: D Tuning

  Clean
(0:00)
 Gtr I
e|-----------------|---------4--------|-----------------|-----------------|
B|---------3-------|-------5---5------|---------3-------|-------5-8-------|
G|-------3---3-----|-----6-------6----|-------3---3-----|-----6-----9-----|
D|-----5-------5---|---6-----------6--|-----5-------5---|---6---------9---|
A|---5-----------3-|-4----------------|---5-----------5-|-4-------------7-|
E|-3---------------|------------------|-3---------------|-----------------|

 Gtr II
e|-3---------------|-4-------4--------|-3---------------|-4---------------|
B|-3-------3-------|-5---------5------|-3-------3-------|-5-------8-------|
G|-3---------3-----|-6-----------6----|-3---------3-----|-6---------9-----|
D|-5-----------5---|-6-------------6--|-5-----------5---|-6-----------9---|
A|-5-------------5-|-4----------------|-5-------------5-|-4-------------7-|
E|-3---------------|------------------|-3---------------|-----------------|


(0:07)
 Gtr I
e|-----------------|---------4-------|-----------------|-----------------|
B|---------3-------|-------5---5-----|---------3-------|-------5-8-------|
G|-------3---3-----|-----6-------6---|-------3---3-----|-----6-----9-----|
D|-----5-------5---|---6-----------6-|-----5-------5---|---6---------9---|
A|---5-----------3-|-4---------------|---5-----------5-|-4-------------7-|
E|-3---------------|-----------------|-3---------------|-----------------|
 
 Gtr II
e|-3---------------|-4-------4-------|-3---------------|-4---------------|
B|-3-------3-------|-5---------5-----|-3-------3-------|-5-------8-------|
G|-3---------3-----|-6-----------6---|-3---------3-----|-6---------9-----|
D|-5-----------5---|-6-------------6-|-5-----------5---|-6-----------9---|
A|-5-------------5-|-4---------------|-5-------------5-|-4-------------7-|
E|-3---------------|-----------------|-3---------------|-----------------|


(0:15)
 Gtr I
e|-----------------|-0-------0-------|-----------------|-----------------|
B|-7-------7-------|---4-------4-----|-7-------7-------|---------8-------|
G|---8-------8-----|-----5-------5---|---8-------8-----|-------7---7-----|
D|-----8-------8---|-------6-------6-|-----8-------8---|-----9-------9---|
A|-------6-------6-|-----------------|-------6-------6-|---9-----------9-|
E|-----------------|-----------------|-----------------|-7---------------|
 Gtr II
e|-6-------0-------|-0-------0-------|-6-------0-------|-----------------|
B|-7----------4----|---4-------4-----|-7----------4----|---------8-------|
G|-8-------------5-|-----5-------5---|-8-------------5-|-------7---------|
D|-8---------------|-------6-------6-|-8---------------|-----9-----------|
A|-6---------------|-----------------|-6---------------|---9-------------|
E|-----------------|-----------------|-----------------|-7---------------|


(0:22)
 Gtr I
e|-----------------|-0-------0-------|-----------------|-----------------|
B|-7-------7-------|---4-------4-----|-7-------7-------|---------0-------|
G|---8-------8-----|-----5-------5---|---8-------8-----|-----0-----0-----|
D|-----8-------8---|-------6-------6-|-----8-------8---|-------0-----0---|
A|-------6-------6-|-----------------|-------6-------6-|---9-----------9-|
E|-----------------|-----------------|-----------------|-7---------------|

 Gtr II
e|-6-------0-------|-0-------0-------|-6-------0-------|-----------------|
B|-7----------4----|---4-------4-----|-7----------4----|---------0-------|
G|-8-------------5-|-----5-------5---|-8-------------5-|-----0-----0-----|
D|-8---------------|-------6-------6-|-8---------------|-------0-----0---|
A|-6---------------|-----------------|-6---------------|---9-----------9-|
E|-----------------|-----------------|-----------------|-7---------------|


(0:30)
 Gtr I
e|----------10-------------|-------------11----------|----------10-------------|-------------13-------------|
B|-------------13----------|-------12-------12-------|-------------13----------|----------14----14----------|
G|-------12-------12-------|----------13-------13----|-------12-------12-------|-------15----------15-------|
D|----12-------------12----|----13----------------13-|----12-------------12----|----15----------------15----|
A|-10-------------------10-|-11----------------------|-10-------------------10-|-13----------------------13-|
E|-------------------------|-------------------------|-------------------------|----------------------------|

Gtr II
e|-10----------------------|-11----------11----------|-10----------------------|-13-------------------------|
B|-13----------13----------|-12-------------12-------|-13----------13----------|-14-------------------------|
G|-12-------------12-------|-13----------------13----|-12-------------12-------|-15-------------------------|
D|-12----------------12----|-13-------------------13-|-12----------------12----|-15-------------------------|
A|-10-------------------10-|-11----------------------|-10-------------------10-|-13-------------------------|
E|-------------------------|-------------------------|-------------------------|----------------------------|


(0:37)
 Gtr I
e|----------10-------------|-------------11----------|----------10-------------|-------------13-|
B|-------------13----------|-------12-------12-------|-------------13----------|----------14-14-|
G|-------12-------12-------|----------13-------13----|-------12-------12-------|-------15----15-|
D|----12-------------12----|----13----------------13-|----12-------------12----|----15----------|
A|-10-------------------10-|-11----------------------|-10-------------------10-|-13-------------|
E|-------------------------|-------------------------|-------------------------|----------------|

Gtr II
e|-10----------------------|-11----------11----------|-10----------------------|----------------|
B|-13----------13----------|-12-------------12-------|-13----------13----------|----------------|
G|-12-------------12-------|-13----------------13----|-12-------------12-------|-------15-------|
D|-12----------------12----|-13-------------------13-|-12----------------12----|----15----------|
A|-10-------------------10-|-11----------------------|-10-------------------10-|-13-------------|
E|-------------------------|-------------------------|-------------------------|----------------|


(0:45)
Gtr I
e|-----------------|---------4---------|-----------------|-----------------|
B|---------3-------|-------5---5-------|---------3-------|-------5-8-------|
G|-------3---3-----|-----6-------6-----|-------3---3-----|-----6-----9-----|
D|-----5-------5---|---6-----------6---|-----5-------5---|---6---------9---|
A|---5-----------3-|-4---------------4-|---5-----------5-|-4-------------7-|
E|-3---------------|-------------------|-3---------------|-----------------|
 
 Gtr II
e|-3---------------|-4-------4---------|-3---------------|-4---------------|
B|-3-------3-------|-5---------5-------|-3-------3-------|-5-------8-------|
G|-3---------3-----|-6-----------6-----|-3---------3-----|-6---------9-----|
D|-5-----------5---|-6-------------6---|-5-----------5---|-6-----------9---|
A|-5-------------5-|-4-----------------|-5-------------5-|-4-------------7-|
E|-3---------------|-------------------|-3---------------|-----------------|


(0:53)
Gtr I
e|-----------------|---------4---------|-----------------|-----------------|
B|---------3-------|-------5---5-------|---------3-------|-----------------|
G|-------3---3-----|-----6-------6-----|-------3---3-----|-----------------|
D|-----5-------5---|---6-----------6---|-----5-------5---|-----6-----8-----|
A|---5-----------3-|-4---------------4-|---5-----------5-|---6-----8-----6-|
E|-3---------------|-------------------|-3---------------|-4-----6-----4---|
 
 Gtr II
e|-3---------------|-4-------4---------|-3---------------|-----------------|
B|-3-------3-------|-5---------5-------|-3-------3-------|-----------------|
G|-3---------3-----|-6-----------6-----|-3---------3-----|-----------------|
D|-5-----------5---|-6-------------6---|-5-----------5---|-6-----8-----6---|
A|-5-------------5-|-4-----------------|-5-------------5-|---6-----8-----6-|
E|-3---------------|-------------------|-3---------------|-----4-----6-----|


  Distortion
 Gtr I
e|-----------------------------------------------------------------|
B|-----------------------------------------------------------------|
G|-----------------------------------------------------------------|
D|-----5---6---3-5-----5---6---3-5-----5---6---3-5---5-----5-------|
A|-----------------------------------------------------4-----6-5-4-|
E|-3-3---3---3-----3-3---3---3-----3-3---3---3-----3-----3---------|
   . .   .   .     . .   .   .     . .   .   .     .     .
 
 Gtr II
e|-----------------------------------------------------------------|
B|-----------------------------------------------------------------|
G|-----------------------------------------------------------------|
D|-5---------------------------------------------------------------|
A|-5---------------------------------------------------------------|
E|-3---------------------------------------------------------------|


 
 Gtr I
e|--------------------------------------------------------------|
B|--------------------------------------------------------------|
G|--------------------------------------------------------------|
D|-----5---6---3-5-----5---6---3-5-----5---6---3-5--------------|
A|-------------------------------------------------5-5-6--5-5-8-|
E|-3-3---3---3-----3-3---3---3-----3-3---3---3-----3-3-4--3-3-6-|
   . .   .   .     . .   .   .     . .   .   .     . .    . . 
 
 Gtr II
e|--------------------------------------------------------------|
B|--------------------------------------------------------------|
G|--------------------------------------------------------------|
D|-5------------------------------------------------------------|
A|-5-----------------------------------------------5-5-6--5-5-8-|
E|-3-----------------------------------------------3-3-4--3-3-6-|
                                                   . .    . .


 Verse
 Gtr I & II
e|-----------------------------------------------------------------|
B|-----------------------------------------------------------------|
G|-----------------------------------------------------------------|
D|-----5---6---3-5-----5---6---3-5-----5---6---3-5---5-----5-------|
A|-----------------------------------------------------4-----6-5-4-|
E|-3-3---3---3-----3-3---3---3-----3-3---3---3-----3-----3---------|
   . .   .   .     . .   .   .     . .   .   .     .     .


 Chorus
 Gtr I & II
e|------------------------------------------------------------------|
B|------------------------------------------------------------------|
G|------------------------------------------------------------------|
D|----------5--4-----------------------------5--4-------------------|
A|-6--6--6--3--2--5--5-5-5-5-5-5-5--6--6--6--3--2--5--5-5-5-5-5-5-5-|
E|-4--4--4--------3--3-3-3-3-3-3-3--4--4--4--------3--3-3-3-3-3-3-3-|
            .  .     . . . . . . .           .  .     . . . . . . .  
   Chaos!                              Deserted people you follow blind!
 
 Gtr I & II
e|---------------------------------------------------|
B|---------------------------------------------------|
G|---------------------------------------------------|
D|----------5--4-----------------------------5--4----|
A|-6--6--6--3--2--5--5-5-5-5-5-5-5--6--6--6--3--2--5-|
E|-4--4--4--------3--3-3-3-3-3-3-3--4--4--4--------3-|
            .  .     . . . . . . .           .  .  .
   Chaos!                            Of what's inside your mind!


 Solo Rhythm
e|--------------------------------------------------------------------|
B|--------------------------------------------------------------------|
G|--------------------------------------------------------------------|
D|--------------------------------------------------------------6-----|
A|-6\5--------6---6-----------5---5-----------3---3-----------5---5-3-|
E|-4\3--3-3-3---3---3-3-3-3-3---3---3-3-3-3-3---3---3-3-3-3-3---------|
        . . .   .   . . . . .   .   . . . . .   .   . . . . .
 
e|------------------------------------------------------------------|
B|------------------------------------------------------------------|
G|------------------------------------------------------------------|
D|----------5--4-----------------------------5--4-------------------|
A|-6--6--6--3--2--5--5-5-5-5-5-5-5--6--6--6--3--2--5--5-5-5-5-5-5-5-|
E|-4--4--4--------3--3-3-3-3-3-3-3--4--4--4--------3--3-3-3-3-3-3-3-|
            .  .     . . . . . . .           .  .     . . . . . . .  

e|---------------------------------------------------|
B|---------------------------------------------------|
G|---------------------------------------------------|
D|----------5--4-----------------------------5--4----|
A|-6--6--6--3--2--5--5-5-5-5-5-5-5--6--6--6--3--2--5-|
E|-4--4--4--------3--3-3-3-3-3-3-3--4--4--4--------3-|
            .  .     . . . . . . .           .  .  .


 Don't you think you're gone see the devil in me
 I don't want you to die
 I want the pleasure for me to keep
 Lead you to the other side
 Taste the hate, live it as form of healing
 The curse is burning inside
 Siphon your breath to me as the final curtain falls
 Destroyed hopeless leaving the world behind

 Chaos, deserted people you follow blind
 Chaos, of what's inside your mind

 Vanquished meekly disciples you will turn to me
 I am all what you want
 Force fed prophecies I offer what you want to be
 Worship the fallen one
 
 Chaos, deserted people you follow blind
 Chaos, of what's inside your mind

 Close your eyes and dream a life you never had
 Domination on the weak
 Feeble destitute now beg for a piece of mercy
 Beg for your life to keep
 Taste the hate, live it as form of healing
 The curse is burning inside
 Siphon your breath to me as the final curtain falls
 Destroyed hopeless leaving the world behind

 Chaos, deserted people you follow blind
 Chaos, of what's inside your mind


************************************

| .   palm mute
| /   slide up
| \   slide down
| h   hammer-on
| p   pull-off
| ~   vibrato
| +   harmonic
| x   Mute note
| b   Bend
| pb  Pre-bend
| br  Bend release
| pbr Pre-bend release
| brb Bend release bend

************************************
Добавлено: 10.05.2016
Другие материалы по этой песне:
  • Аккорды и текст

Страница создана 10.05.2016
http://primanota.ru/suicidal-angels/chaos-curse-burning-inside-chords.htm
Привет, Гость.
Предлагаем пройти революционный курс по гитаре.
Подарок от PrimaNota.Ru, забирай!