PrimaNota.ru - самый крупный в мире бесплатный архив песенных текстов, аккордов, табулатур и нот


Suhancos - Bjol - таба, видео

Регистрация Запомнить меня
Войти через:  Facebook Google Twitter Vk Yandex Mail.ru

Suhancos - Bjol - таба, видео

Печатать
Просмотров: 86
Уроки эстрадного вокала в Санкт-Петербурге
Standard Tuning, Capo on 7th
I do not own this tab, i just copied here.
Tab copied from:http://gitartab.hu/hu/tab/suhancos/bajolo/53924

Az Intró ( littleborz.freeblog.hu oldalról )

E-17-17-17--15-15-15-14-12-12-14-14/15-----------------|
B------------------------------------------------------|
G------------------------------------------------------|
D------------------------------------------------------|
A------------------------------------------------------|
E------------------------------------------------------|

E-15-15-15-14-12--12-12-14-15-------------------------|
B-----------------------------------------------------|
G-----------------------------------------------------|
D-----------------------------------------------------|
A-----------------------------------------------------|
E-----------------------------------------------------|

E-12--------------------------------------|
B---12--------13------13------------------|
G-----14----14--14--14--------------------|
D---------14------14----------------------|
A-----------------------------------------|
E-----------------------------------------|

E--12-12-12-------------------------------|
B----------12--------12-------------------|
G------------12----12--12--12-------------|
D----------------14------14---------------|
A-----------------------------------------|
E-----------------------------------------|


Szabó Balázs(Refrén)

! A Dal ének része a következő akkordok bontásából épül fel: C, G, Dm, Am
CAPO a 7-es bundra ! a tab kb 90%-ban pontos.

Rebbenő szemmel ülök a fényben,
Rózsafa ugrik át a sövényen,
Ugrik a fény is, gyűlik a felleg,
Surran a villám, s már feleselget.
S már feleselget, fenn a magasban,
Fenn a magasban dörgedelem vad,
Dörgedelem vad, dörgedelemmel,
Dörgedelemmel, s kékje lehervad.
S kékje lehervad, lenn a tavaknak,
Lenn a tavaknak, s tükre megárad.
S tükre megárad, jöjj be a házba,
Jöjj be a házba, vesd le ruhádat.
Vesd le ruhádat, már esik is kinn,
Már esik is kinn, már esik is kinn.
Vesd le az inged, mossa az eső,
Mossa az eső össze szívünket.

FankaDeli versszaka elött ( 2x játszd )
E-------------------------0---------------------------|
B---1-1-0-1-1-0-1-1-0-1-----1-------------------------|
G---2-2-------2-2-2-----2-----------------------------|
D-----------------------------------------------------|
A-----------------------------------------------------|
E-----------------------------------------------------|

E-------------------------0---------------------------|
B---1-1-0-1-1-0-1-1-0-1-----1-------------------------|
G---2-2-------2-2-2-----2-----------------------------|
D-------------2---2-----------------------------------|
A---3-3-------3-3-3-----------------------------------|
E-----------------------------------------------------|

E-------------------------0---------------------------|
B---1-1-0-1-1-0-1-1-0-1-----1-------------------------|
G---2-2-------2-2-2-----2-----------------------------|
D-----------------------------------------------------|
A-------------2---2-----------------------------------|
E---3-3-------3-3-3-----------------------------------|

E-------------------------0---------------------------|
B---1-1-0-1-1-0-1-1-0-1-----1-------------------------|
G---2-2-------2-2-2-----2-----------------------------|
D-----------------------------------------------------|
A-----------------------------------------------------|
E-----------------------------------------------------|

A rész lényege, hogy Balázs az Am-hoz adja hozzá a C, és a G akkord mélyebb részeit 
ahogy azt a tabon is látjátok.
Tetszés szerint játszd hozzá a mélyebb húrokon levő hangokat. ahogy a dalban is hallható :)

FankaDeli:
                                        Am     C      G     Am
Itt a következő akkordokat bontogasd: 00221x | x3201x | 32001x | 00221x


Én hiszek Istenben, bár tudom ez nagy balgaság,
És csak neki zenélek, mégis mások hallgatják,
Talán engem ki sem szúrt a több milliárd közül,
Talán amíg ki nem szúr, talán addig örül.
Én hiszek benned, még mindig, bármit mondtam,
És igaz, ami igaz, mikor adtam is csak loptam.
Elvettem tőled mindent, minden csepp reményed,
Már te is csak áhítod, tudod, a lelki szegények.
Én így születtem, látok, de a vak nyelvét is értem,
Azért beszélek így, mert hazudni mindig féltem.
Hogy a mennybe jutok kétlem, mert árnyékod íve
Ágyékom kigáncsolta és visszalőttem a szívre.
Én hiszem, hogy van Isten, mert mi mástól lehetne,
Hogy mindazt amit láttam végül mégis nevetve
Mesélem és karjaid mégis újra ölelnek,
Hogy álmaim a sárból minden reggel fölkelnek.
Én hiszem, hogy a sorsom sajnálja a sorsát,
Hisz' ki taposna szívesen tövis nélküli rózsát?
Én hiszem, minden egyes ember angyalnak születik,
És Isten arról álmodik, hogy nem mindig csak követik.
Hanem egy szép napon majd utolérik páran,
Akik rendet tesznek itt lent ebben a világban.
Én hiszem, hogy Te lehetsz az, ki felvezet a csúcsra,
Hisz' nálad van az ajtó, tessék, itt a kulcsa.

Refrén.
Добавлено: 21.10.2013
Другие материалы по этой песне:
  • Аккорды и текст

Страница создана 21.10.2013
http://primanota.ru/suhancos/bjol-chords.htm
Привет, Гость.
Предлагаем пройти революционный курс по гитаре.
Подарок от PrimaNota.Ru, забирай!