PrimaNota.ru - самый крупный в мире бесплатный архив песенных текстов, аккордов, табулатур и нот


Sugarland - Down In Mississippi - текст песни, таба, бас-таба, видео

Регистрация Запомнить меня
Войти через:  Facebook Google Twitter Vk Yandex Mail.ru

Sugarland - Down In Mississippi - текст песни, таба, бас-таба, видео

Печатать
Просмотров: 230
                    Down in Mississippi (Up to No Good)



       Sugarland

(SOLO)

The solo section to this song is made up of several instruments taking turns with the
parts. Instead of dealing with fiddle, slide, and multiple harmonies, I've approximated a
solo that can be played with a single electric guitar. Have fun!


E  E  E  E     Q      Q     Q       Q
-----------------------|----------------------------|
--L--------------------|----------------------------|
--L-----------------7--|--9br----7----12br----11----|
--L-----------7--9-----|----------------------------|
--L--------------------|----------------------------|
-----------------------|----------------------------|


                                              PM
   Q       E   H          E      E    E   E   E   E    E   Q
-----------------------------|--12b--12--10---------------------|
--12br----10--13b~--------L--|---------------12-----------------|
-----------------------------|-------------------12b--12--11----|
-----------------------------|----------------------------------|
-----------------------------|----------------------------------|
-----------------------------|----------------------------------|


  Q      E  Q      Q     E      Q     E  E  Q     E  E
----------------------------|---------------------------|
------------------10-----L--|---------8--8--------------|
--9br----7--9b----(9)-------|--10b----------9b----7--7--|
----------------------------|---------------------------|
----------------------------|---------------------------|
----------------------------|---------------------------|


   Q     Q     E   Q     E      Q      E    E   E   Q      E
----------------------------|---------------------------------|
--10b----8---------8~----L--|--17b----15S--13------13~--------|
--------------10b-----------|------------------14---------14--|
----------------------------|---------------------------------|
----------------------------|---------------------------------|
----------------------------|---------------------------------|


   Q      E   Q      E   Q        E   Q      H          E
-------------------------------|--x--19b----17~--------15br--|
--13~--------13~--------13~----|-----------------------------|
---------14---------14---------|-----------------------------|
-------------------------------|-----------------------------|
-------------------------------|-----------------------------|
-------------------------------|-----------------------------|


  S  S   E   E   E   E   E   Q        E   E   E   E   E   E   E   E
--L--Lp-13------------------------|------15--19------15--19------15--|
------------15--12----------------|--15----------15----------15------|
--------------------14--12--------|----------------------------------|
----------------------------15----|----------------------------------|
----------------------------------|----------------------------------|
----------------------------------|----------------------------------|


    E   E   E   E      Q      E     E     Q      E     E
-------17--21------|--21b----21pb--21pb--21b----21pb--21pb--|
--/17----------17--|----------------------------------------|
-------------------|----------------------------------------|
-------------------|----------------------------------------|
-------------------|----------------------------------------|
-------------------|----------------------------------------|


   Q      Q      E    E   Q          W
--21b----21b----21b--------------|---------------------|-------------------|
---------------------15--17br----|--15~----------------|-------------------|
---------------------------------|---------------------|-------------------|
---------------------------------|---------------------|-------------------|
---------------------------------|---------------------|-------------------|
---------------------------------|---------------------|-------------------|



Duration Legend
---------------
W - whole
H - half
Q - quarter
E - 8th
S - 16th
T - 32nd
X - 64th
. - note dotted
|-n-|  - n-tuplets


Tablature Legend
----------------
L - tied note
x - dead note
g - grace note
(n) - ghost note
> - accentuded note
NH - natural harmonic
AH - artificial harmonic
TH - tapped harmonic
SH - semi harmonic
PH - pitch harmonic
h - hammer on
p - pull off
b - bend
br - bendRelease
pb - preBend
pbr - preBendRelease
brb - bendReleaseBend
\n/ - tremolo bar dip
\n - tremolo bar dive
-/n - tremolo bar Release up
/n\ - tremolo bar inverted dip
/n - tremolo bar return
-\n - tremolo bar Release down
S - shift slide
s - legato slide
/ -  slide into from below or out of upwards
\ -  slide into from above or out of downwards
~ - vibrato
W - wide vibrato
tr - trill
TP - tremolo picking
T - tapping
S - slap
P - pop
< - fade in
^ - brush up
v - brush down
Добавлено: 14.08.2013
Другие материалы по этой песне:

Страница создана 17.03.2012
http://primanota.ru/sugarland/down-in-mississippi-chords.htm
Привет, Гость.
Предлагаем пройти революционный курс по гитаре.
Подарок от PrimaNota.Ru, забирай!