PrimaNota.ru - самый крупный в мире бесплатный архив песенных текстов, аккордов, табулатур и нот


Sugarcult - Sugarcult - таба, видео

Регистрация Запомнить меня
Войти через:  Facebook Google Twitter Vk Yandex Mail.ru

Sugarcult - Sugarcult - таба, видео

Печатать
Просмотров: 56
Intro:
Guitar 1
E ---6------6------6------6--------------------
B -------6------6-------6----6-----------------
G ---------------------------------------------
D ---------------------------------------------
A ---------------------------------------------
E ---------------------------------------------


Intro/Verse:
Bb        F
Today I changed
D#                c
Too late, cuz everyone stayed the same
Bb           F
I'm gone so long 
D#                 C
break out cuz I'm better off on my own



Guitar Riff:
E --------------------------------------------------
B --------------------------------------------------
G --3-----------8-8---8-8-------3----------8-8---8--
D --3----3-3----8-8---8-8-------3----3-3---8-8---8--
A --1----3-3----6-6---6-6-------1----3-3---6-6---6--
E -------1-1-------------------------1-1------------ repeat


Intro (palm-mute):

Bb       F
Today I changed
D#                 C
But Too late cuz every town feels the same
Bb             F
I'm different and your distant
D#                F
Add it up and it makes no difference


(Pre Chorus):
Bb          F            D#               C
Everybody's talking bout blowin' up the neighborhood
Bb          F            D#
Everybody's gonna break it up today
Bb          F            D#               C
Everybody's talkin bout blowin' up the neighborhood
Bb          F       D#
Runnin' just to get away


Chorus:           
E ------------------------------------------------
B ------------------------------------------------
G ----------3-------------------------5--------8--
D ----------3------3------------------5--------8--
A ----------1------3------------------3--------6--
E -----------------1------------------------------
Stuck in America           Stuck in America

E ------------------------------------------------
B ------------------------------------------------
G ----------3-------------------------5--------8--
D ----------3------3------------------5--------8--
A ----------1------3------------------3--------6--
E -----------------1------------------------------
I'm lost in America        Stuck in America


Guitar Riff
Guitar 1:
E ---6------6------6------6--------------------
B -------6------6-------6----6-----------------
G ---------------------------------------------
D ---------------------------------------------
A ---------------------------------------------
E ---------------------------------------------

Guitar 2:
E ----------------------------------------------
B ----------------------------------------------
G --3----------8----8--------3---------8--8-----
D --3----3-----8----8--------3----3----8--8-----
A --1----3-----6----6--------1----3----6--6-----
E -------1------------------------1------------- 

Play Verse:
Today I changed
New town with the same old face
One way to shake
This place that I can't escape


Pre-Chorus:
Bb          F            D#               C
Everybody's talking bout blowin' up the neighborhood
Bb          F            D#
Everybody's gonna break it up today
Bb          F            D#               C
Everybody's talkin bout blowin' up the neighborhood
Bb         C          D#
I'm still tryin' to escape


Chorus:
Stuck In America
Stuck In America
I'm Lost in America
Stuck in America


E --------------------------------------------------
B --------------------------------------------------
G --3-3-3----------------5-5-5------8-8-8-----------
D --3-3-3-----3-3-3------5-5-5------8-8-8-----------
A --1-1-1-----3-3-3------3-3-3------6-6-6-----------
E ------------1-1-1--------------------------------- repeat
Today.......
Today.......

E ------------------------------------------------
B ------------------------------------------------
G ----------3-------------------------5--------8--
D ----------3------3------------------5--------8--
A ----------1------3------------------3--------6--
E -----------------1------------------------------(Repeat)


E ------------
B ------------
G ---3--------
D ---3--------
A ---1--------
E ------------ (LET RING)


Everybody's talking bout blowin' up the neighborhood
Everybody's gonna break it up today
Everybody's talkin bout blowin' up the neighborhood
All I ever wanted was to get away

(Chorus)
Stuck In America
Stuck In America
Stuck in America
Stuck in America

(play guitar riff)
Get away
(from all that sh*t that you put me)
(from all that sh*t that you put me)
(from all that sh*t that you put me)
(from all that sh*t that you put me through)


Bb    F           D#.......D  C  Bb
Today I changed

D# D#!!

Добавлено: 06.12.2013
Другие материалы по этой песне:
  • Аккорды и текст

Страница создана 06.12.2013
http://primanota.ru/sugarcult/sugarcult-chords.htm
Привет, Гость.
Предлагаем пройти революционный курс по гитаре.
Подарок от PrimaNota.Ru, забирай!