PrimaNota.ru - самый крупный в мире бесплатный архив песенных текстов, аккордов, табулатур и нот


Sugarcult - Shaking - текст песни, таба, видео

Регистрация Запомнить меня
Войти через:  Facebook Google Twitter Vk Yandex Mail.ru

Sugarcult - Shaking - текст песни, таба, видео

Печатать
Просмотров: 192
Уроки эстрадного вокала в Санкт-Петербурге
Shaking Tab by Sugarcult, www.Ultimate-Guitar.Com

Sugarcult - shaking


Guitar1 -inizio-
e--------------------0-0-0-0-0-0-0----------------------0-0-0-0-0-0-0----------|
B-0-0-0-0-0-0-0------6-6-4-6-6-6-4-x2--0-0-0-0-0-0-0----6-6-4-6-6-6-4-x2-------|
G-5-5-3-5-5-5-3—x4---------------------5-5-3-5-5-5-3-x2--------------------X2--|
D------------------------------------------------------------------------------|
A------------------------------------------------------------------------------|
E------------------------------------------------------------------------------|

e------------------------------------------------------------------------------|
B------------------------------------------------------------------------------|
G------------------------------------------------------------------------------|
D------------------------------------------------------------------------------|
A--13-13-13-13-13-13-13-13-16-16-16-16-16-16-16-16-X2--------------------------|
E------------------------------------------------------------------------------|

Guitar 2 -ritornello-
e------------------------------------------------------------------------------|
B------------------------------------------------------------------------------|
G------------------------------6-6-6-6-6-6-6-6-6-6-6-6-6-6-6-6-X2--------------|
D-6-6-6-6-6-6-6-6-6-6-6-6-6-6—-6-6-6-6-6-6-6-6-6-6-6-6-6-6-6-6—---6-6-6-6-6----|
A-6-6-6-6-6-6-6-6-6-6-6-6-6-6—-4-4-4-4-4-4-4-4-4-4-4-4-4-4-4-4----6-6-6-6-6----|
E-4-4-4-4-4-4-4-4-4-4-4-4-4-4-------------------------------------4-4-4-4-4----|
Guitar 1
e------------------------------0-0-0-0-0-0-0-0-0-0-0-0-0-0---------------------|
B-0-0-0-0-0-0-0-0-0-0-0-0-0-0--6-6-4-6-6-6-4-6-6-4-6-6-6-4-----X2--------------|
G-5-5-3-5-5-5-3—5-5-3-5-5-5-3--------------------------------------------------|
D------------------------------------------------------------------------------|
A------------------------------------------------------------------------------|
E------------------------------------------------------------------------------|

Guitar 1 –solo-

e----------0-0-0-----------0-0-0-----------------------------------------------|
B-0--0--0--0-0-0--0--0--0--0-0-0--0--0--0-----0--0-----------------------------|
G-13-12-13-------13-12-13---------13-12-10\12-12-10—---X2----------------------|
D------------------------------------------------------------------------------|
A------------------------------------------------------------------------------|
E------------------------------------------------------------------------------|

e-------------------------------------------------------------------------------
B----------6---------6---------6-8-9-8-6-4-6------------------------------------
G-7\10-7/9---7\10-7/9--7\10-7/9-------------------------------------------------
D-------------------------------------------------------------------------------
A-------------------------------------------------------------------------------
E-------------------------------------------------------------------------------

e-------------------------------------------------------------------------------
B----------6---------6---------6-8-9-8-6-4-6-9-8-6-4----------------------------
G-7\10-7/9---7\10-7/9--7\10-7/9-------------------------------------------------
D-------------------------------------------------------------------------------
A-------------------------------------------------------------------------------
E-------------------------------------------------------------------------------

Guitar 2 –solo-

e------------------------------------------------------------------------------|
B------------------------------------------------------------------------------|
G----------------------------------------------------4-4-4-4-4-4-4-4-----------|
D-4-4-4-4-4-4-4-4—-9-9-9-9-9-9-9-9—-8-8-8-8-8-8-8-8—-4-4-4-4-4-4-4-4-----------|
A-4-4-4-4-4-4-4-4—-9-9-9-9-9-9-9-9—-8-8-8-8-8-8-8-8—-2-2-2-2-2-2-2-2-----------|
E-2-2-2-2-2-2-2-2—-7-7-7-7-7-7-7-7—-6-6-6-6-6-6-6-6—---------------------------|

La canzone è molto bella, suonatela bene!!!!
 
Добавлено: 21.04.2012
Другие материалы по этой песне:
  • Аккорды и текст

Страница создана 26.03.2012
http://primanota.ru/sugarcult/shaking-chords.htm
Привет, Гость.
Предлагаем пройти революционный курс по гитаре.
Подарок от PrimaNota.Ru, забирай!