PrimaNota.ru - самый крупный в мире бесплатный архив песенных текстов, аккордов, табулатур и нот


Sugarcult - I'm Alright - аккорды и текст, видео

Регистрация Запомнить меня
Войти через:  Facebook Google Twitter Vk Yandex Mail.ru

Sugarcult - I'm Alright - аккорды и текст, видео

Печатать
Просмотров: 100
I'm Alright
Sugarcult
i'm not really gonna get into technical stuff but this is the basic song.
its really easy, listen to it and it'll all make sense

i'm alright-sugarcult

intro

-----------------------
-----------------------
--------5-5-------------
--3-3---5-5-5-5--------
--3-3---3-3-5-5--------
--1-1-------3-3------

rest of the song:

------------------- ------------------------
------------4------ ------------------------
----4-------5------ ----------7-7----5-5--
----5-------5------ --5-5----7-7----5-5--
----5-------3------ --5-5----5-5----3-3--
----3--------------  --3-3-----------------

check out these guys live if you ever have a chnace they amazing. markos
is my favourite because he fell in love with my ramones shirt

-Jaimmie


     
Добавлено: 27.08.2013
Другие материалы по этой песне:
  • Аккорды и текст

Страница создана 21.05.2012
http://primanota.ru/sugarcult/im-alright-chords.htm
Привет, Гость.
Предлагаем пройти революционный курс по гитаре.
Подарок от PrimaNota.Ru, забирай!