PrimaNota.ru - самый крупный в мире бесплатный архив песенных текстов, аккордов, табулатур и нот


Sugarcult - Dead Living - текст песни, таба, видео

Регистрация Запомнить меня
Войти через:  Facebook Google Twitter Vk Yandex Mail.ru

Sugarcult - Dead Living - текст песни, таба, видео

Печатать
Просмотров: 159
Band :	Sugarcult
Song :	Dead Living
Album:	Lights Out
Track:	1

Standart Tuning.
Listen to the song before playing.

* = Palm Mute.

INTRO
-----
Guitar 1
e|--------------------------------|
B|-----------9--------------------|
G|-------10----8--6\5------//15~~-| 2x
D|--------------------6/8---------|
A|--------------------------------|
E|--------------------------------|
Guitar 2
e|----------------------------|
B|----------------------------|
G|----------------------------|
D|-4-4-4-8-8-8-8-8-8-8-8-8----| 5x   (5th time belongs to verse)
A|-4-4-4-8-8-8-8-8-8-8-8-8----|
E|-2-2-2-6-6-6-6-6-6-6-6-6----|

Verse
-----
Guitar 2
e|--------------------------|
B|--------------------------|
G|--------------------------|
D|-8-8-8-8-8-8-8-8-8-8------|..    I can't take it
A|-8-8-8-8-8-8-8-8-8-8------|..    It's just a paycheck
E|-6-6-6-6-6-6-6-6-6-6------|..    Making arrangements to
  <----Palm-Mute------------|
e|--------------------------|
B|--------------------------|
G|-6-6-6-6------------------|
D|-6-6-6-6-6-6-6-8----------|        burn it to the ground!
A|-4-4-4-4-6-6-6-8----------|
E|---------4-4-4-6----------|

e|--------------------------|
B|--------------------------|
G|--------------------------|
D|-8-8-8-8-8-8-8-8-8-8------|..    I can't fake it
A|-8-8-8-8-8-8-8-8-8-8------|..    When nothing's sacred
E|-6-6-6-6-6-6-6-6-6-6------|..    Making arrangements to
  <----Palm-Mute------------|
e|--------------------------|
B|--------------------------|
G|-6-6-6-6------------------|
D|-6-6-6-6-6-6-6-4----------|        burn it to the grou~~~nd
A|-4-4-4-4-6-6-6-4----------|
E|---------4-4-4-2----------|

Pre Chorus
----------

Guitar 1
e|-------------------------------------------------------------------|
B|-------------------------------------------------------------------|
G|-1---1---1---1---1---1---1---1----5---5---5---5---5---5---5---5----| 2x
D|--3---3---3---3---3---3---3---3----6---6---6---6---6---6---6---6---|
A|-------------------------------------------------------------------|
E|-------------------------------------------------------------------|
  <-----------------------------Palm-Mute----------------------------|
Guitar 2
e|-------------------------------------------------------------------|
B|-------------------------------------------------------------------|
G|-------------------------------------------------------------------|
D|-4-4-4-4-4-4-4-4-4-4-4-4-4-4-4-4-6-6-6-6-6-6-6-6-6-6-6-6-6-6-6-6---| 2x
A|-4-4-4-4-4-4-4-4-4-4-4-4-4-4-4-4-6-6-6-6-6-6-6-6-6-6-6-6-6-6-6-6---|
E|-2-2-2-2-2-2-2-2-2-2-2-2-2-2-2-2-4-4-4-4-4-4-4-4-4-4-4-4-4-4-4-4---|
  <-----------------------------Palm-Mute----------------------------|
Lyrics
  grou~~~~~~~~~~~~~~~~~~~~~~~nd  -  And beauty lies in the ignorant
  With the sou~~~~~~~~~~~~~~~nd  -  of selling out to the innocent

Both Guitars Pickslide

Chorus
------
Guitar 2

e|--------------|
B|--------------|
G|-----6-6-6----| (2x)		I can't save us from the outside
D|-4-4-6-6-6-6--|		I can't take it, what I'm told
A|-4-4-4-4-4-6--|
E|-2-2-------4--|

e|------------------------------|
B|------------------------------|	You can't stop it
G|-------------6-6-6-6----------|	It just started
D|-4-4-4-4-4-4-6-6-6-6-6-6-6-6--|	Dead living on the radio
A|-4-4-4-4-4-4-4-4-4-4-6-6-6-6--|
E|-2-2-2-2-2-2---------4-4-4-4--|

e|--------------|
B|--------------|
G|-----6-6-6----|		I can't save us from the outside
D|-4-4-6-6-6-6--|		ohoo...
A|-4-4-4-4-4-6--|
E|-2-2-------4--|


~Repeat Intro~ (riff 1x)

VERSE 2
-------
Played as verse 1
Lyrics:
I can't take it
I won't cooperate
Making arrangements to bury it in the ground
I can't fake it
This station
Is going under, so I'll bury this in the ground

Pre Chorus2
-----------
Guitar 1
e|-------------------------------------------------------------------|
B|-------------------------------------------------------------------|
G|-1---1---1---1---1---1---1---1----5---5---5---5---5---5---5---5----| 2x
D|--3---3---3---3---3---3---3---3----6---6---6---6---6---6---6---6---|
A|-------------------------------------------------------------------|
E|-------------------------------------------------------------------|
  <-----------------------------Palm-Mute----------------------------|
Guitar 2
e|------------------------------------------------------------------|
B|------------------------------------------------------------------|
G|------------------------------------------------------------------|
D|-4-4-4--4-4-4--4-4-4--4-4-4----/---6-6-6--6-6-6--6-6-6--6-6-6-\---| 2x
A|-4-4-4--4-4-4--4-4-4--4-4-4---/----6-6-6--6-6-6--6-6-6--6-6-6--\--|
E|-2-2-2--2-2-2--2-2-2--2-2-2--/-----4-4-4--4-4-4--4-4-4--4-4-4---\-|
   * *	  * *    * *    * *          * *    * *    * *    * *
   PM     PM     PM     PM           PM     PM     PM     PM
Lyrics:
And beauty lies in the ignorant  -  With the sou~~~nd of selling out to the innocent

Pickslide

~Repeat Chorus~

Solo:
Guitar 1:
e|---------------------------------------------------------------------------------|
B|----9-----------------------------------9----------------------------------------|
G|-10---10\8-6/8-6-5--------6---6/8\6--10---10\8-6/8-6-5-6-5-6---11-11-11-10-10-11-|
D|-------------------6-8~-8---8--------------------------------8-11-11-11-11-11-11-|
A|---------------------------------------------------------------------------------|
E|---------------------------------------------------------------------------------|

Do the rest alone ;) to hard 4 me...

Guitar 2:
e|------------------------------------------------------|
B|------------------------------------------------------|
G|------------------------------------------------------|
D|-4-4-4-4-4-4-6-6-6-6-6-6-8-8-8-8-8-8-8-8-8-8-8-8------| 2x
A|-4-4-4-4-4-4-6-6-6-6-6-6-8-8-8-8-8-8-8-8-8-8-8-8------|
E|-2-2-2-2-2-2-4-4-4-4-4-4-6-6-6-6-6-6-6-6-6-6-6-6------|

e|------------------------------------------------------|
B|------------------------------------------------------|
G|-------------------------4-4-4-4-4-4------------------|
D|-4-4-4-4-4-4-6-6-6-6-6-6-4-4-4-4-4-4-4-4-4-4-4-4------|
A|-4-4-4-4-4-4-6-6-6-6-6-6-6-6-6-6-6-6-4-4-4-4-4-4------|
E|-2-2-2-2-2-2-4-4-4-4-4-4-------------2-2-2-2-2-2------|

e|------------------------------------------------------|
B|------------------------------------------------------|
G|------------------------------------------------------|
D|-4-4-4-4-4-4-6-6-6-6-6-6-3-3-3-3-3-3-4-4-4-8-8-8------|
A|-4-4-4-4-4-4-6-6-6-6-6-6-3-3-3-3-3-3-4-4-4-8-8-8------|
E|-2-2-2-2-2-2-4-4-4-4-4-4-1-1-1-1-1-1-2-2-2-6-6-6------|
Bridge:
--------------------|
e|------------------|
B|------------------|
G|------------------|
D|-4-4-4-8-8-8------|
A|-4-4-4-8-8-8------|
E|-2-2-2-6-6-6------|

e|-----------------|
B|-----------------|
G|-6-6-------------|
D|-6-6-6-8---------|
A|-4-4-6-8---------|
E|-----4-6---------|

I can't take it
It's just a paycheck
Making arrangements

e|-------|
B|-------|
G|-------|
D|-------|
A|-------|
E|-2-4-6-|

I can't take it
It's just a paycheck
Making arrangements

e|------0!-------------------------------------------------|
B|------0!-------------------------------------------------|
G|------0!-------------------------------------------------|
D|------0!-8-8-8-8-8-8-8-8-8-8-8-8-4-4-4-6-6-6-8-8-8-8-8-8-|
A|------0!-8-8-8-8-8-8-8-8-8-8-8-8-4-4-4-6-6-6-8-8-8-8-8-8-|
E|-2-4--0!-6-6-6-6-6-6-6-6-6-6-6-6-2-2-2-4-4-4-6-6-6-6-6-6-|
           * * * * * * * * * * * * * * * * * * * * *
Lyrics:    I can't take one more day all for I am done
	   I can't bend, this must end, counting back from 3, 2, 1!

~Repeat Chorus~

Outro
-----
Guitar 2:
e|---------------------------------------------------|
B|---------------------------------------------------|
G|-------------------------------------6-6-6-6-6-6---|
D|-4-4-4-4-4-4-6-6-6-6-6-6-8-8-8-8-8-8-6-6-6-6-6-6---| 3x
A|-4-4-4-4-4-4-6-6-6-6-6-6-8-8-8-8-8-8-4-4-4-4-4-4---|
E|-2-2-2-2-2-2-4-4-4-4-4-4-6-6-6-6-6-6---------------|
   I can't save us    -    You can't take us
   No one gets out    -    ali~~~ve
   I can't save us    -    You can't take us
e|-----------------------------------------------------|
B|-----------------------------------------------------|
G|-----------------------------------------------------|
D|-4-4-4-4-4-4-6-6-6-6-6-6-3-3-3-3-3-3-4-4-4-8-8-8-\---|
A|-4-4-4-4-4-4-6-6-6-6-6-6-3-3-3-3-3-3-4-4-4-8-8-8--\--|
E|-2-2-2-2-2-2-4-4-4-4-4-4-1-1-1-1-1-1-2-2-2-6-6-6---\-|
No one gets out...


That's it! I know that theres missing a part of the solo and a lot of
guitar 1 (chorus and outro & more)
but it's hard to figure out that.
Do it alone ;) (another song from sugarcult)
Plz rate because it's my first tab!! =)
Добавлено: 11.11.2013
Другие материалы по этой песне:
  • Аккорды и текст

Страница создана 01.06.2012
http://primanota.ru/sugarcult/dead-living-chords.htm
Привет, Гость.
Предлагаем пройти революционный курс по гитаре.
Подарок от PrimaNota.Ru, забирай!