PrimaNota.ru - самый крупный в мире бесплатный архив песенных текстов, аккордов, табулатур и нот


Sugar - System Of A Down - аккорды и текст, таба, видео

Регистрация Запомнить меня
Войти через:  Facebook Google Twitter Vk Yandex Mail.ru

Sugar - System Of A Down - аккорды и текст, таба, видео

Печатать
Просмотров: 159
System Of A Down
Sugar
song:sugar
by:soad
tabber:josh tonkin
detuned

intro/chorus
1/--------------------------------------
2/--------------------------------------
3/-------------------------------------- x4
4/--0-7-6-5--------------------------------
5/--0-7-6-5---------------------------------
6/--0-7-6-5-----------------------------

   verse
1/-----13--12-11-10----10-------10-------
2/--10--------------10----10-10---------
3/--------------------------------------  x3
4/--------------------------------------
5/--------------------------------------
6/---------------------------------------

  outro
1/--------------------------------------
2/--------------------------------------
3/--------------------------------------
4/-0--1--0--1--1-0-0-0-0-0-1-----------
5/-0--1--0--1--1-0-0-0-0-0-1------------
6/-0--1--0--1--1-0-0-0-0-0-1----------

lead
1/-0000000-11111111-4444444-555555-444444-1111111-00000000-------
2/----------------------------------------------------------------
3/-------------------------------------------------------------
4/-------------------------------------------------------------
5/--------------------------------------------------------------
6/---------------------------------------------------------------

lead continued
1/---------------------------------------------------------------
2/-0000000-11111111-3333333-5555555-7777777-8888888-777777777----
3/--------------------------------------------------------------
4/---------------------------------------------------------------
5/-----------------------------------------------------------------
6/----------------------------------------------------------------

intro
verse
chorus
verse
outro
solo until end of song
     
Добавлено: 15.08.2013
Другие материалы по этой песне:
  • Аккорды и текст

Страница создана 28.07.2012
http://primanota.ru/sugar/system-of-a-down-chords.htm
Привет, Гость.
Предлагаем пройти революционный курс по гитаре.
Подарок от PrimaNota.Ru, забирай!