PrimaNota.ru - самый крупный в мире бесплатный архив песенных текстов, аккордов, табулатур и нот


Sugar Minott - Give A Hand - бас-таба, видео

Регистрация Запомнить меня
Войти через:  Facebook Google Twitter Vk Yandex Mail.ru

Sugar Minott - Give A Hand - бас-таба, видео

Печатать
Просмотров: 52
Уроки эстрадного вокала в Санкт-Петербурге
-------------------------------------------------------------------------------
                             Give a hand - Sugar Minott
-------------------------------------------------------------------------------
Tabbed by: Ari
E-mail: arizonadream137@hotmail.com

Tuning: standard

Part I:

G|-------------------------------------|
D|-----99--------9-------77--------7---|
A|-777--------77-----555--------55-----|
E|--------7-7------7--------5-5------5-|


Part II:

G|-------------------------------------|
D|-----55--------5-------77--------7---|
A|-333--------33-----555--------55-----|
E|--------3-3------3--------5-5------5-|

Part I  X4
Part II X3
Part I  X5
Part II X5
Part I  X3
===============================================================================
Добавлено: 27.12.2015
Другие материалы по этой песне:
  • Аккорды и текст

Страница создана 27.12.2015
http://primanota.ru/sugar-minott/give-a-hand-chords.htm
Привет, Гость.
Предлагаем пройти революционный курс по гитаре.
Подарок от PrimaNota.Ru, забирай!