PrimaNota.ru - самый крупный в мире бесплатный архив песенных текстов, аккордов, табулатур и нот


Sugar Minott - Change Your Ways - бас-таба, видео

Регистрация Запомнить меня
Войти через:  Facebook Google Twitter Vk Yandex Mail.ru

Sugar Minott - Change Your Ways - бас-таба, видео

Печатать
Просмотров: 48
-------------------------------------------------------------------------------
                             Change your ways - Sugar Minott
-------------------------------------------------------------------------------
Tabbed by: Ari
E-mail: arizonadream137@hotmail.com

Tuning: standard

Part I:

       X4       X2        X2
G|----------|---------|---------|
D|----------|---------|---------|
A|-----8-11-|-----1-4-|-----3-6-|
E|-9-9------|-2-2-----|-4-4-----|


Part II:

     X7        X2
G|---------|---------|
D|---------|---------|
A|-----1-4-|-----3-6-|
E|-2-2-----|-4-4-----|


Part I  X3
Part II X1
Part I  X4
Part II X1
Part I  X2

===============================================================================
Добавлено: 27.12.2015
Другие материалы по этой песне:
  • Аккорды и текст

Страница создана 27.12.2015
http://primanota.ru/sugar-minott/change-your-ways-chords.htm
Привет, Гость.
Предлагаем пройти революционный курс по гитаре.
Подарок от PrimaNota.Ru, забирай!