PrimaNota.ru - самый крупный в мире бесплатный архив песенных текстов, аккордов, табулатур и нот


Sugar Glyder - The Spoils Of War - таба, видео

Регистрация Запомнить меня
Войти через:  Facebook Google Twitter Vk Yandex Mail.ru

Sugar Glyder - The Spoils Of War - таба, видео

Печатать
Просмотров: 116
-----------------------------------------------------------------------------
                             The Spoils of War - Sugar Glyder
-----------------------------------------------------------------------------
Tabbed by: Nic Robinson
Email: slum1@bellsouth.net

Tuning: Standard EADGBe, Daniel uses a capo but I'm not because my guitar has a 
deeper tone and it sounds better for me without one
  
Intro               
e|-------------------|-----------------------|
B|----------7--------|----------7------------|
G|----6-7-9---7---6~-|----6-7-9---7~-7---7---| 2x
D|-7h9----------9----|-7h9-------------9---7-|
A|-------------------|-----------------------|
E|-------------------|-----------------------|

e|----------------------------------|
B|-----------7----------------------|
G|-----6-7-9---7-9-11-7-9-6~~-------|
D|--7h9-----------------------------|
A|----------------------------------|
E|----------------------------------|

e|----------------------------7+--|
B|-----------7----------------7+--|
G|-----6-7-9---7-9h11-7-------7+--|
D|-7h9------------------7-9-7-7+--|
A|--------------------------------|
E|--------------------------------|

e|--------------------------|---------------------------------|
B|----------7---------------|----------7----------------------|
G|----6-7-9---7-9-11-7-9-6~-|----6-7-9---7-9h11-7-------7-----| 2x
D|-7h9----------------------|-7h9-----------------7-9-7---7---|
A|--------------------------|---------------------------------|
E|--------------------------|---------------------------------|

Pre-Verse/Verse
e|------------------------------10~--9~-------------------------------|
B|------------------------------12~-10~-------------------------------|
G|-7~-9—11~--9~-11-12~--7~-9----12~--9~-------------------------------|
D|-7~-9—11~--9~-11-12~--7~-9-9~---------------------------------------|
A|-5~-7—-9~--7~--9-10~--5~-7-9~---------------------------------------|
E|---------------------------7~---------------------------------------|

..and as you curl(both guitars are going)
Rhythm (Daniel)
e|------------------------------|---------10--------9-----------------------|
B|------------------------------|---------12(strum)10(strum)----------------|
G|-7~-9-11~--9~-11-12-14-16-18\-|-7~-9----12--------9-----------------------|
D|-7~-9-11~--9~-11-12-14-16-18\-|-7~-9-9~-----------------------------------|
A|-5~-7-—9~--7~--9-10-12-14-16\-|-5~-7-9~-----------------------------------|
E|------------------------------|------7~-----------------------------------|

Lead (Rigo)I think he has distortion and reverb going but I'm not sure
e|--------------------------------------------------------------------------|
B|-7~-5----------------------7~-5-------------------------------------------|
G|------6~--4~---------------------6~-444444446667--------------------------|
D|-------------7---4h5p4h5--------------------------------------------------|
A|---------------7~---------------------------------------------------------|
E|--------------------------------------------------------------------------|


Chorus
e|--------------------------|---------------------------------|
B|----------7---------------|----------7----------------------|
G|----6-7-9---7-9-11-7-9-6~-|----6-7-9---7-9h11-7-------7-----| 2x
D|-7h9----------------------|-7h9-----------------7-9-7---7---|
A|--------------------------|---------------------------------|
E|--------------------------|---------------------------------|

After Chorus
e|------------------------------|---------10--------9-----------------------|
B|------------------------------|---------12(strum)10(strum)----------------|
G|-7~-9-11~--9~-11-12-14-16-18\-|-7~-9----12--------9-----------------------|
D|-7~-9-11~--9~-11-12-14-16-18\-|-7~-9-9~-----------------------------------|
A|-5~-7-—9~--7~--9-10-12-14-16\-|-5~-7-9~-----------------------------------|
E|------------------------------|------7~-----------------------------------|

Then repeat the verse and chorus
They use a bunch of effects after that but it's pretty much the same 


************************************

| /   slide up
| \   slide down
| h   hammer-on
| p   pull-off
| ~   vibrato
| +   harmonic
| x   Mute note
| b   Bend
| pb  Pre-bend
| br  Bend release
| pbr Pre-bend release
| brb Bend release bend

************************************

Добавлено: 03.03.2012
Вам также может быть интересно:
Другие материалы по этой песне:
  • Аккорды и текст

Страница создана 03.03.2012
http://primanota.ru/sugar-glyder/the-spoils-of-war-chords.htm
Привет, Гость.
Предлагаем пройти революционный курс по гитаре.
Подарок от PrimaNota.Ru, забирай!