PrimaNota.ru - самый крупный в мире бесплатный архив песенных текстов, аккордов, табулатур и нот


Suga Shikao - Yuudachi - бас-таба, видео

Регистрация Запомнить меня
Войти через:  Facebook Google Twitter Vk Yandex Mail.ru

Suga Shikao - Yuudachi - бас-таба, видео

Печатать
Просмотров: 113
Уроки эстрадного вокала в Санкт-Петербурге
This song is pretty underground, aswell as the whole show, but my guitar instructor 
helped me figure out the bass part to the song. The song is 4:46, look it up on Youtube.

0:00

G------------|
D--5-6-7-----|
A------------|
E------------|

0:02-1:00
Play each note 7 seven times, and match rhythem, not that hard.
It repeats 5 times. (This is the Intro and Verse, you play this 1 time in the intro and 
then 4 more in the 1st Verse.

(D} (G) {E} {A}   G------------|
                  D--5-6-7-----|  < Play this riff after the four main notes
                  A------------|   are played.
                  E------------|
0:57-1:00 (Optional)Instead of playing the A note for a 5th time, you can play
this.
G-----------------|
D-7-5-------------|
A-----5-6-7-------|
E-----------------|

1:00-1:23
Chorus
Repeat everything Twice.
G------------------|  G--------------------|
D-----7-----9------|  D--------------------|
A--5-----7---------|  A--------------3-----|
E------------------|  E--5------3----------|
(x3)

1:23-1:31

G-------------------------|
D-7--5-7------------------|
A---------3--5--3---------|
E----------------5--------|
(x3)

1:31-1:35

G-----------5/7--5--------|
D-7--5-7------------7-----|
A-------------------------|
E-------------------------|

1:36-2:22

Play each note 7 seven times, and match rhythem, not that hard.
It repeats 4 times.
(D} (G) {E} {A}   G------------|
                  D--5-6-7-----|  < Play this riff after the four main notes
                  A------------|   are played.
                  E------------|

2:19-2:21 (Optional)Instead of playing the A note for a 4th time, you can play
this.
G-----------------|
D-7-5-------------|
A-----5-6-7-------|
E-----------------|

2:22-2:46
Chorus
Repeat everything Twice.
G------------------|  G--------------------|
D-----7-----9------|  D--------------------|
A--5-----7---------|  A--------------3-----|
E------------------|  E--5------3----------|
(x3)

2:46-2:57 (Play every 2 seconds, you can really hear it if you close your eyes at this 
part and just think.

G-----------------------|
D--5-5-6-6-7-7----------|
A-----------------------|
E-----------------------|

2:59-3:00

G-----------------------|
D-1/5-5-5-6-6-7-7-------|
A-----------------------|
E-----------------------|

3:02-3:05

G-----------------------|
D--5-5-6-6-7-7----------|
A-----------------------|
E-----------------------|

3:06-3:11

G-----------------------------|
D--7-5-7-----5---7---9--9/12--|
A--------5--------------------|
E-----------------------------|

3:11-3:57
Chorus
Repeat everything Till 3:57
G------------------|  G--------------------|
D-----7-----9------|  D--------------------|
A--5-----7---------|  A--------------3-----|
E------------------|  E--5------3----------|
(x3)

3:57-4:46
G-----------------------|
D-------7--------9------|
A--5-55----5-55-----7---|
E-----------------------|

Took me awile to think of the other bass by my self! SO i hope u all enjoy.

My facebook is Gregoire Xavier Seaman if you wanna message me.
Добавлено: 31.08.2013
Вам также может быть интересно:
Другие материалы по этой песне:
  • Аккорды и текст

Страница создана 31.08.2013
http://primanota.ru/suga-shikao/yuudachi-chords.htm
Привет, Гость.
Предлагаем пройти революционный курс по гитаре.
Подарок от PrimaNota.Ru, забирай!