PrimaNota.ru - самый крупный в мире бесплатный архив песенных текстов, аккордов, табулатур и нот


Suffokate - I Own You - таба, видео

Регистрация Запомнить меня
Войти через:  Facebook Google Twitter Vk Yandex Mail.ru

Suffokate - I Own You - таба, видео

Печатать
Просмотров: 109
Уроки эстрадного вокала в Санкт-Петербурге
 Suffokate - I Own You
Tuning : (high to low) C# , G# , E , B , F# , B

 Intro riff
 |-------------|
 |-------------|
 |-------------|
 |-------------|
 |-4-3-1-4-3-0-|
 |-4-3-1-4-3-0-|
p.m.............

 Filler
 |-----------------|
 |-----------------|
 |-----------------|
 |-----------------|
 |-0-3-0-3-444-333-|
 |-0-3-0-3-444-333-|
            ..  ..

 Riff 2
 |---------------------------------------|
 |---------------------------------------|
 |---------------------------------------|
 |---------------------------------------|
 |-0-00-0-0-0-0-0-0-3-33-3-33-4-44-3-3-3-|
 |-0-00-0-0-0-0-0-0-3-33-3-33-4-44-3-3-3-|
     ..   .   .       ..   ..   ..   .

 Riff 3
 |---------------------------------------|
 |---------------------------------------|
 |---------------------------------------|
 |----------------------10-7-9-6-8-5-7-4-|
 |-00000-00000---00000-------------------|
 |-00000-00000---00000-------------------|
 p.m..................

 Riff 4
 |-------------------------------|
 |-------------------------------|
 |-------------------------------|
 |-------------------------------|
 |-00000001110001133333344433311-|
 |-00000001110001133333344433311-|
 p.m............................

 (above riff is played again with out being palm muted)

Thats most of the song, I know I forgot some back ground parts. But I just wanted to get 
idea's out there. Rate and please help me correct!
Contact me at singleguy_911@hotmail.com for more tabs and help.
Добавлено: 04.04.2012
Другие материалы по этой песне:
  • Аккорды и текст

Страница создана 04.04.2012
http://primanota.ru/suffokate/i-own-you-chords.htm
Привет, Гость.
Предлагаем пройти революционный курс по гитаре.
Подарок от PrimaNota.Ru, забирай!