PrimaNota.ru - самый крупный в мире бесплатный архив песенных текстов, аккордов, табулатур и нот


Sucioperro - Reflexes Of The Dead - таба, видео

Регистрация Запомнить меня
Войти через:  Facebook Google Twitter Vk Yandex Mail.ru

Sucioperro - Reflexes Of The Dead - таба, видео

Печатать
Просмотров: 125
Уроки эстрадного вокала в Санкт-Петербурге
-----------------------------------------------------------------------------
                             REFLEXES OF THE DEAD - Sucioperro
------------------------------------------------------------------------------- 
This is just a rough draft I worked out cause I couldn't find a tab anywhere. 
You can experiment a bit and I hope it helps :)
I wasn't able to figure out the whole song, but you can just combine the 4 
different chords until you get it right, it shouldn't be too hard.
Complete lyrics below, second verse is basically like the first one. 
Feel free to email me for suggestions.
This is my first tab ever.
SUCIOPERRO ARE AWESOME! :-)


Tabbed by: Anne P.
Email: annnn0201@hotmail.de

Tuning: Standard (EADGBe)

Intro:

e|-0---------0---0---------0---0---------0---0------------------------------|
B|-0---------0---0---------0---0---------0---0------------------------------|
G|-6---------4---1---------4---6---------4---1------------------------------|
D|-6---------4---2---------4---6---------4---2------------------------------|
A|-4---------2---2---------2---4---------2---2------------------------------|
E|-0---------0---0---------0---0---------0---0------------------------------|

e|-0--------------------------------0--------0------------------------------|
B|-0--------------------------------0--------0------------------------------|
G|-6--------------------------------4--------1------------------------------|
D|-6--------------------------------4--------2------------------------------|
A|-4--------------------------------2--------2------------------------------|
E|-0--------------------------------0--------0------------------------------|

    I sense you lost a little something along the way

e|--0-----------------0----------------0----0-------------------------------|
B|--0-----------------0----------------0----0-------------------------------|
G|--4-----------------4----------------4----1-------------------------------|
D|--4-----------------6----------------4----2-------------------------------|
A|--2-----------------6----------------2----2-------------------------------|
E|--0-----------------0----------------0----0-------------------------------|

    Reaching for someone you could balance on

e|-0------------------------0--------0--------------------------------------|
B|-0------------------------0--------0--------------------------------------|
G|-6------------------------4--------1--------------------------------------|
D|-6------------------------4--------2--------------------------------------|
A|-4------------------------2--------2--------------------------------------|
E|-0------------------------0--------0--------------------------------------|

    Scraping for excuses in order to sharpen up

e|-0-----------------0----------------0-----0-------------------------------|
B|-0-----------------0----------------0-----0-------------------------------|
G|-4-----------------4----------------4-----1-------------------------------|
D|-4-----------------6----------------4-----2-------------------------------|
A|-2-----------------6----------------2-----2-------------------------------|
E|-0-----------------0----------------0-----0-------------------------------|

    Reaching for someone that you can count on

e|-0--------------------------------------0---0-----------------------------|
B|-0--------------------------------------0---0-----------------------------|
G|-6--------------------------------------4---1-----------------------------|
D|-6--------------------------------------4---2-----------------------------| 
A|-4--------------------------------------2---2-----------------------------|
E|-0--------------------------------------0---0-----------------------------|

    That wall you built was too weakened

e|----------------------------------------0---0-----------------------------|
B|----------------------------------------0---0-----------------------------|
G|----------------------------------------4---6-----------------------------|
D|----------------------------------------4---6-----------------------------|
A|----------------------------------------2---4-----------------------------|
E|----------------------------------------0---0-----------------------------|

    That wall you built was too weakened

e|-----------0---0----------------------------------------------------------|
B|-----------0---0----------------------------------------------------------|
G|-----------4---1----------------------------------------------------------|
D|-----------4---2----------------------------------------------------------|
A|-----------2---2----------------------------------------------------------|
E|-----------0---0----------------------------------------------------------|

    To hold you in

e|--------------------0-------------------------------0---------------------|
B|----------------------0-------------------------------0-------------------|
G|------------------------2-------------------------------1-----------------|
D|--------------------------2-------------------------------2---------------|
A|------------------0-------------------------------2-----------------------|
E|--------------------------------------------------------------------------|

    I let go of your hand,      I fell right to the bottom

e|----------------0-----------0-----------0---------------------------------|
B|------------------0-----------0-----------0-------------------------------|
G|--------------------2-----------1-----------2-----------------------------|
D|----------------------------------------------2---------------------------|
A|--------------0-----------2-----------0-----------------------------------|
E|--------------------------------------------------------------------------|

    You carried on as if nothing had changed


************************************

The next verses should be about the same chord progressions.
I'm still trying to figure out the "wake up, wake up my angel" part, when I have 
it correctly, I'll put it up.

************************************

LYRICS:

I sense you lost a little something along the way
Reaching for someone you could balance on
Scraping for excuses in order to sharpen up
Reaching for someone that you can count on

That wall you built was too weakened
That wall you built was too weakened
To hold you in

I let go of your hand
I fell right to the bottom
You carried on as if nothing had changed
I didn't mean to hold you back
But I was under attack
You carried on as if nothing had changed

I see you gave a little treasure for losing you
You have my heart of someone without the ties
I watch you step so lightly and you dream of lies
You have the heart of someone who never tries

That river runs too shallow
That river runs too shallow to hold you in

I let go of your hand (don't wait for me down there?)
I fell right to the bottom (don't fall back down again?)
You carried on as if nothing had changed (i didn't think it had changed)
I didn't mean to hold you back
But I was under attack
You carried on as if nothing had changed

Wake up, wake up my angel, you are my oxygen.
Wake up, wake up my angel,
Wake up, wake up my angel, you are my oxygen.
Wake up, wake up my angel, 

Let me know nothing
Let me know
Let me know nothing
let me know
Let me know nothing
and be happy at last

Let me know nothing
Let me know
Let me know nothing
Let me know
Let me know nothing
and be happy at last

Wake up, wake up my angel, you are my oxygen

************************************
Добавлено: 24.03.2012
Вам также может быть интересно:
Другие материалы по этой песне:
  • Аккорды и текст

Страница создана 24.03.2012
http://primanota.ru/sucioperro/reflexes-of-the-dead-chords.htm
Привет, Гость.
Предлагаем пройти революционный курс по гитаре.
Подарок от PrimaNota.Ru, забирай!