PrimaNota.ru - самый крупный в мире бесплатный архив песенных текстов, аккордов, табулатур и нот


Such Creatures Exist - Snakebites Vs Prom Dresses - таба, видео

Регистрация Запомнить меня
Войти через:  Facebook Google Twitter Vk Yandex Mail.ru

Such Creatures Exist - Snakebites Vs Prom Dresses - таба, видео

Печатать
Просмотров: 77
Уроки эстрадного вокала в Санкт-Петербурге
                                    Snakebites Vs. Prom Dresses
                                       Such Creatures Exist

                                    
guitar 1



                                         E  E  E  E  E  E  E  E   
D||--------|-------|-------|--------||---------------------------|
A||--------|-------|-------|--------||---------------------------|
F||*-------|-------|-------|-------*||*--------------------------|
C||*-------|-------|-------|-------*||*--7--7--7--7--7--7--7--7--|
G||--------|-------|-------|--------||---0--0--0--0--0--0--0--0--|
C||--------|-------|-------|--------||---0--0--0--0--0--0--0--0--|


   E   E   E   E   E   E   E   E      E   E   E   E   E   E   E   E   
----------------------------------|----------------------------------|
----------------------------------|----------------------------------|
----------------------------------|----------------------------------|
--10--10--10--10--10--10--10--10--|--10--10--10--10--10--10--10--10--|
---7---7---7---7---7---7---7---7--|---8---8---8---8---8---8---8---8--|
---7---7---7---7---7---7---7---7--|---8---8---8---8---8---8---8---8--|


   E   E   E   E   E   E   E   E       E  E  E  E  E  E  E  E   
-----------------------------------||--------------------------|
-----------------------------------||--------------------------|
----------------------------------*||--------------------------|
--10--10--10--10--10--10--10--10--*||--7--7--7--7--7--7--7--7--|
---8---8---8---8---8---8---8---8---||--0--0--0--0--0--0--0--0--|
--10--10--10--10--10--10--10--10---||--0--0--0--0--0--0--0--0--|


   E   E   E   E   E   E   E   E      E   E   E   E   E   E   E   E   
----------------------------------|----------------------------------|
----------------------------------|----------------------------------|
----------------------------------|----------------------------------|
--10--10--10--10--10--10--10--10--|--10--10--10--10--10--10--10--10--|
---7---7---7---7---7---7---7---7--|---8---8---8---8---8---8---8---8--|
---7---7---7---7---7---7---7---7--|---8---8---8---8---8---8---8---8--|


   E   E   E   E   E   E   E   E     E  E  E  E  E  E  E  E   
----------------------------------|--------------------------|
----------------------------------|--------------------------|
----------------------------------|--------------------------|
--10--10--10--10--10--10--10--10--|--7--7--7--7--7--7--7--7--|
---8---8---8---8---8---8---8---8--|--0--0--0--0--0--0--0--0--|
--10--10--10--10--10--10--10--10--|--0--0--0--0--0--0--0--0--|


   E   E   E   E   E   E   E   E      E   E   E   E   E   E   E   E   
----------------------------------|----------------------------------|
----------------------------------|----------------------------------|
----------------------------------|----------------------------------|
--10--10--10--10--10--10--10--10--|--10--10--10--10--10--10--10--10--|
---7---7---7---7---7---7---7---7--|---8---8---8---8---8---8---8---8--|
---7---7---7---7---7---7---7---7--|---8---8---8---8---8---8---8---8--|


   E   E   E   E   E   E   E   E     S S S S S S S S S S S S S S S S  
----------------------------------|----------------------------------|
----------------------------------|----------------------------------|
----------------------------------|----------------------------------|
--10--10--10--10--10--10--10--10--|--7-7-7---7-7-7---7-7-7---7-7-7---|
---8---8---8---8---8---8---8---8--|--0-0-0---0-0-0---0-0-0---0-0-0---|
--10--10--10--10--10--10--10--10--|--0-0-0---0-0-0---0-0-0---0-0-0---|


   S  S  S S  S  S  S S  S  S  S S  S  S  S S     S  S  S S  S  S  S S  S  S  S S  S  S  S S  
----------------------------------------------|----------------------------------------------|
----------------------------------------------|----------------------------------------------|
----------------------------------------------|----------------------------------------------|
--10-10-10---10-10-10---10-10-10---10-10-10---|--10-10-10---10-10-10---10-10-10---10-10-10---|
---7--7--7----7--7--7----7--7--7----7--7--7---|---8--8--8----8--8--8----8--8--8----8--8--8---|
---7--7--7----7--7--7----7--7--7----7--7--7---|---8--8--8----8--8--8----8--8--8----8--8--8---|


   S  S  S S  S  S  S S  S  S  S S  S  S  S S    S S S S S S S S S S S S S S S S  
----------------------------------------------|----------------------------------|
----------------------------------------------|----------------------------------|
----------------------------------------------|----------------------------------|
--10-10-10---10-10-10---10-10-10---10-10-10---|--7-7-7---7-7-7---7-7-7---7-7-7---|
---8--8--8----8--8--8----8--8--8----8--8--8---|--0-0-0---0-0-0---0-0-0---0-0-0---|
--10-10-10---10-10-10---10-10-10---10-10-10---|--0-0-0---0-0-0---0-0-0---0-0-0---|


   S  S  S S  S  S  S S  S  S  S S  S  S  S S     S  S  S S  S  S  S S  S  S  S S  S  S  S S  
----------------------------------------------|----------------------------------------------|
----------------------------------------------|----------------------------------------------|
----------------------------------------------|----------------------------------------------|
--10-10-10---10-10-10---10-10-10---10-10-10---|--10-10-10---10-10-10---10-10-10---10-10-10---|
---7--7--7----7--7--7----7--7--7----7--7--7---|---8--8--8----8--8--8----8--8--8----8--8--8---|
---7--7--7----7--7--7----7--7--7----7--7--7---|---8--8--8----8--8--8----8--8--8----8--8--8---|


   S  S  S S  S  S  S S  S  S  S S  S  S  S S    S S S S S S S S S S S S S S S S  
----------------------------------------------|----------------------------------|
----------------------------------------------|----------------------------------|
----------------------------------------------|----------------------------------|
--10-10-10---10-10-10---10-10-10---10-10-10---|--7-7-7---7-7-7---7-7-7---7-7-7---|
---8--8--8----8--8--8----8--8--8----8--8--8---|--0-0-0---0-0-0---0-0-0---0-0-0---|
--10-10-10---10-10-10---10-10-10---10-10-10---|--0-0-0---0-0-0---0-0-0---0-0-0---|


   S  S  S S  S  S  S S  S  S  S S  S  S  S S     S  S  S S  S  S  S S  S  S  S S  S  S  S S  
----------------------------------------------|----------------------------------------------|
----------------------------------------------|----------------------------------------------|
----------------------------------------------|----------------------------------------------|
--10-10-10---10-10-10---10-10-10---10-10-10---|--10-10-10---10-10-10---10-10-10---10-10-10---|
---7--7--7----7--7--7----7--7--7----7--7--7---|---8--8--8----8--8--8----8--8--8----8--8--8---|
---7--7--7----7--7--7----7--7--7----7--7--7---|---8--8--8----8--8--8----8--8--8----8--8--8---|


   S  S  S S  S  S  S S  S  S  S S  S  S  S S    S S S S S S S S S S S S S S S S  
----------------------------------------------|----------------------------------|
----------------------------------------------|----------------------------------|
----------------------------------------------|----------------------------------|
--10-10-10---10-10-10---10-10-10---10-10-10---|--7-7-7---7-7-7---7-7-7---7-7-7---|
---8--8--8----8--8--8----8--8--8----8--8--8---|--0-0-0---0-0-0---0-0-0---0-0-0---|
--10-10-10---10-10-10---10-10-10---10-10-10---|--0-0-0---0-0-0---0-0-0---0-0-0---|


   S  S  S S  S  S  S S  S  S  S S  S  S  S S     S  S  S S  S  S  S S  S  S  S S  S  S  S S  
----------------------------------------------|----------------------------------------------|
----------------------------------------------|----------------------------------------------|
----------------------------------------------|----------------------------------------------|
--10-10-10---10-10-10---10-10-10---10-10-10---|--10-10-10---10-10-10---10-10-10---10-10-10---|
---7--7--7----7--7--7----7--7--7----7--7--7---|---8--8--8----8--8--8----8--8--8----8--8--8---|
---7--7--7----7--7--7----7--7--7----7--7--7---|---8--8--8----8--8--8----8--8--8----8--8--8---|


   S  S  S S  S  S  S S  S  S  S S  S  S  S S    E  E   E  E   E  E   E  E   
----------------------------------------------|-----------------------------|
----------------------------------------------|------------8----------------|
----------------------------------------------|--7--9--10-----10--9---------|
--10-10-10---10-10-10---10-10-10---10-10-10---|----------------------10--7--|
---8--8--8----8--8--8----8--8--8----8--8--8---|-----------------------------|
--10-10-10---10-10-10---10-10-10---10-10-10---|-----------------------------|


  H         H            S S S S S S S S S S S S S S S S    S S S S S S S S S S S S S S S S  
----------------------|----------------------------------|----------------------------------|
----------------------|----------------------------------|----------------------------------|
----------------------|----------------------------------|----------------------------------|
----------------------|----------------------------------|----------------------------------|
----------------------|--0-0-0-0-0-----------0-----0-----|--0-0-0-0-0-------0-0-0-0-0-------|
-----------12\--------|--0-0-0-0-0-----------0-----0-----|--0-0-0-0-0-------0-0-0-0-0-------|


  S S S S S S S S S S S S S S S S    S S S S S S S S S S S S S S S S  
----------------------------------|----------------------------------|
----------------------------------|----------------------------------|
----------------------------------|----------------------------------|
----------------------------------|----------------------------------|
--0-0-0-0-0-----------0-----0-----|--0-0-0-0-0-------0-0-0-0-1-------|
--0-0-0-0-0-----------0-----0-----|--0-0-0-0-0-------0-0-0-0-1-------|


  S S S S S S S S S S S S S S S S    S S S S S S S S S S S S S S S S  
----------------------------------|----------------------------------|
----------------------------------|----------------------------------|
----------------------------------|----------------------------------|
----------------------------------|----------------------------------|
--0-0-0-0-0-----------0-----0-----|--0-0-0-0-0-------0-0-0-0-0-------|
--0-0-0-0-0-----------0-----0-----|--0-0-0-0-0-------0-0-0-0-0-------|


  S S S S S S S S S S S S S S S S    S S S S S S S S S S S S S S S S  
----------------------------------|----------------------------------|
----------------------------------|----------------------------------|
----------------------------------|----------------------------------|
----------------------------------|----------------------------------|
--0-0-0-0-0-----------0-----0-----|--0-0-0-0-0-------0-0-0-0-1-------|
--0-0-0-0-0-----------0-----0-----|--0-0-0-0-0-------0-0-0-0-1-------|


  S S S S S S S S S S S S S S S S    S S S S S S S S S S S S S S S S  
----------------------------------|----------------------------------|
----------------------------------|----------------------------------|
----------------------------------|----------------------------------|
----------------------------------|----------------------------------|
--0-0-0-0-0-----------0-----0-----|--0-0-0-0-0-------0-0-0-0-0-------|
--0-0-0-0-0-----------0-----0-----|--0-0-0-0-0-------0-0-0-0-0-------|


  S S S S S S S S S S S S S S S S    S S S S S S S S S S S S S S S S  
----------------------------------|----------------------------------|
----------------------------------|----------------------------------|
----------------------------------|----------------------------------|
----------------------------------|----------------------------------|
--0-0-0-0-0-----------0-----0-----|--0-0-0-0-0-------0-0-0-0-1-------|
--0-0-0-0-0-----------0-----0-----|--0-0-0-0-0-------0-0-0-0-1-------|


  S S S S S S S S S S S S S S S S    S S S S S S S S S S S S S S S S  
----------------------------------|----------------------------------|
----------------------------------|----------------------------------|
----------------------------------|----------------------------------|
----------------------------------|----------------------------------|
--0-0-0-0-0-----------0-----0-----|--0-0-0-0-0-------0-0-0-0-0-------|
--0-0-0-0-0-----------0-----0-----|--0-0-0-0-0-------0-0-0-0-0-------|


  S S S S S S S S S S S S S S S S    S S S S S S S S S S S S S S S S       
----------------------------------|----------------------------------|----|
----------------------------------|----------------------------------|----|
----------------------------------|----------------------------------|----|
----------------------------------|----------------------------------|----|
--0-0-0-0-0-----------0-----0-----|--0-0-0-0-0-------0-0-0-0-1-------|----|
--0-0-0-0-0-----------0-----0-----|--0-0-0-0-0-------0-0-0-0-1-------|----|


  E  E  E  E  E  E  E  E      E  E  E  E  E  E   E  E     E  E  E  E  E  E  E  E   
--------------------------|----------------------------|--------------------------|
--------------------------|----------------------------|--------------------------|
--------------------------|--10--------9---------------|--------------------------|
--------7--------6--------|---------------------10-----|--------7--------6--------|
--------------------------|----------------------------|--------------------------|
--0--0-----0--0-----0--0--|------0--0-----0--0---------|--0--0-----0--0-----0--0--|


  S S  S S S  S  S S S  S  S S S  S  S S    E  E  E  E  E  E  E  E   
-----------------------------------------|--------------------------|
-----------------------------------------|--------------------------|
--0-9-10---0-10-12---0-12-14---0-14-15---|--------------------------|
-----------------------------------------|--------7--------6--------|
-----------------------------------------|--------------------------|
-----------------------------------------|--0--0-----0--0-----0--0--|


   E  E  E  E  E  E   E  E     E  E  E  E  E  E  E  E     S S S S S S S S S S S S S S S S  
----------------------------|--------------------------|----------------------------------|
----------------------------|--------------------------|----------------------------------|
--10--------9---------------|--------------------------|----------------------------------|
---------------------10-----|--------7--------6--------|----------------------------------|
----------------------------|--------------------------|--3-3-3---3-3-3---5-5-5---5-5-5---|
------0--0-----0--0---------|--0--0-----0--0-----0--0--|--3-3-3---3-3-3---5-5-5---5-5-5---|


  E  E  E  E  E  E  E  E      E  E  E  E  E  E   E  E     E  E  E  E  E  E  E  E   
--------------------------|----------------------------|--------------------------|
--------------------------|----------------------------|--------------------------|
--------------------------|--10--------9---------------|--------------------------|
--------7--------6--------|---------------------10-----|--------7--------6--------|
--------------------------|----------------------------|--------------------------|
--0--0-----0--0-----0--0--|------0--0-----0--0---------|--0--0-----0--0-----0--0--|


  S S  S S S  S  S S S  S  S S S  S  S S    E  E  E  E  E  E  E  E   
-----------------------------------------|--------------------------|
-----------------------------------------|--------------------------|
--0-9-10---0-10-12---0-12-14---0-14-15---|--------------------------|
-----------------------------------------|--------7--------6--------|
-----------------------------------------|--------------------------|
-----------------------------------------|--0--0-----0--0-----0--0--|


   E  E  E  E  E  E   E  E     E  E  E  E  E  E  E  E     S S S S S S S S S S S S S S S S  
----------------------------|--------------------------|----------------------------------|
----------------------------|--------------------------|----------------------------------|
--10--------9---------------|--------------------------|----------------------------------|
---------------------10-----|--------7--------6--------|----------------------------------|
----------------------------|--------------------------|--3-3-3---3-3-3---5-5-5---5-5-5---|
------0--0-----0--0---------|--0--0-----0--0-----0--0--|--3-3-3---3-3-3---5-5-5---5-5-5---|


  S S S S S S S S S S S S S S S S    E   E  E  E  E  E  E  E     E   E  E  E   E  E  E   E    
----------------------------------|---------------------------|------------------------------|
----------------------------------|---------------------------|------------------------------|
----------------------------------|---------------------------|------------------------------|
----------------------------------|---------------------------|------------------------------|
--8-8-8---8-8-8---7-7-7---7-7-7---|--5p--4--------------------|--5p--4-----8p--7-----5p--4h--|
--8-8-8---8-8-8---7-7-7---7-7-7---|---------0--0--0--0--0--0--|---------0---------0----------|


  E   E  E  E  E  E  E  E     E  E  E  E  E  E  E  E     E   E  E  E  E  E  E  E   
---------------------------|--------------------------|---------------------------|
---------------------------|--------------------------|---------------------------|
---------------------------|--------------------------|---------------------------|
---------------------------|--------------------------|---------------------------|
--5p--4--------------------|--0--4--7--0--5--8--1--0--|--5p--4--------------------|
---------0--0--0--0--0--0--|--0--4--7--0--5--8--1--0--|---------0--0--0--0--0--0--|


  E   E  E  E   E  E  E   E      E   E  E  E  E  E  E  E     S S S S S S S S S S S S S S S S  
------------------------------|---------------------------|----------------------------------|
------------------------------|---------------------------|----------------------------------|
------------------------------|---------------------------|----------------------------------|
------------------------------|---------------------------|----------------------------------|
--5p--4-----8p--7-----5p--4h--|--5p--4--------------------|--3-3-3---5-5-5---8-8-8---7-7-7---|
---------0---------0----------|---------0--0--0--0--0--0--|--3-3-3---5-5-5---8-8-8---7-7-7---|


  E   E  E  E  E  E  E  E     E   E  E  E   E  E  E   E      E   E  E  E  E  E  E  E   
---------------------------|------------------------------|---------------------------|
---------------------------|------------------------------|---------------------------|
---------------------------|------------------------------|---------------------------|
---------------------------|------------------------------|---------------------------|
--5p--4--------------------|--5p--4-----8p--7-----5p--4h--|--5p--4--------------------|
---------0--0--0--0--0--0--|---------0---------0----------|---------0--0--0--0--0--0--|


  E  E  E  E  E  E  E  E     E   E  E  E  E  E  E  E     E   E  E  E   E  E  E   E    
--------------------------|---------------------------|------------------------------|
--------------------------|---------------------------|------------------------------|
--------------------------|---------------------------|------------------------------|
--------------------------|---------------------------|------------------------------|
--0--4--7--0--5--8--1--0--|--5p--4--------------------|--5p--4-----8p--7-----5p--4h--|
--0--4--7--0--5--8--1--0--|---------0--0--0--0--0--0--|---------0---------0----------|


  E   E  E  E  E  E  E  E       S S S S S S S S S S S S S S S S  3x  W                 
---------------------------||------------------------------------||-------------------|
---------------------------||------------------------------------||-------------------|
---------------------------||*----------------------------------*||-------------------|
---------------------------||*----------------------------------*||-------------------|
--5p--4--------------------||---3-3-3---5-5-5---8-8-8---7-7-7----||--0----------------|
---------0--0--0--0--0--0--||---3-3-3---5-5-5---8-8-8---7-7-7----||--0----------------|


                                          H        S S S    W                 
-------------------|-------------------|-----------------|-------------------|
-------------------|-------------------|-----------------|-------------------|
-------------------|-------------------|-----------------|-------------------|
-------------------|-------------------|-----------------|-------------------|
-------------------|-------------------|-----------0-0-0-|--0----------------|
-------------------|-------------------|-----------0-0-0-|--0----------------|


                                          H         H          
-------------------|-------------------|----------------------|
-------------------|-------------------|----------------------|
-------------------|-------------------|----------------------|
-------------------|-------------------|----------------------|
-------------------|-------------------|----------------------|
-------------------|-------------------|-----------12\--------|


  S S S S S S S S S S S S S S S S    S S S S S S S S S S S S S S S S  
----------------------------------|----------------------------------|
----------------------------------|----------------------------------|
----------------------------------|----------------------------------|
----------------------------------|----------------------------------|
--0-0-0-0-0-0-0-0-0-------0-0-0-0-|--0-------0-0-0-0-0---0---0---0---|
--0-0-0-0-0-0-0-0-0-------0-0-0-0-|--0-------0-0-0-0-0---0---0---0---|


  S S S S S S S S S S S S S S S S    S S S S S S S S S S S S S S S S  
----------------------------------|----------------------------------|
----------------------------------|----------------------------------|
----------------------------------|----------------------------------|
----------------------------------|----------------------------------|
--0-0-0-0-0-0-0-0-0-------0-0-0-0-|--0-------0-0-0-0-0---0---0---0---|
--0-0-0-0-0-0-0-0-0-------0-0-0-0-|--0-------0-0-0-0-0---0---0---0---|


  S S S S S S S S S S S S S S S S    S S S S S S S S S S S S S S S S  
----------------------------------|----------------------------------|
----------------------------------|----------------------------------|
----------------------------------|----------------------------------|
----------------------------------|----------------------------------|
--0-0-0-0-0-0-0-0-0-------0-0-0-0-|--0-------0-0-0-0-0---0---0---0---|
--0-0-0-0-0-0-0-0-0-------0-0-0-0-|--0-------0-0-0-0-0---0---0---0---|


  S S S S S S S S S S S S S S S S    S S S S S S S S S S S S S S S S  
----------------------------------|----------------------------------|
----------------------------------|----------------------------------|
----------------------------------|----------------------------------|
----------------------------------|----------------------------------|
--0-0-0-0-0-0-0-0-0-------0-0-0-0-|--0-------0-0-0-0-0---0---0---0---|
--0-0-0-0-0-0-0-0-0-------0-0-0-0-|--0-------0-0-0-0-0---0---0---0---|


  S S S S S S S S S S S S S S S S    S S S S S S S S S S S S S S S S  
----------------------------------|----------------------------------|
----------------------------------|----------------------------------|
----------------------------------|----------------------------------|
----------------------------------|----------------------------------|
--0-0-0-0-0-0-0-0-0-------0-0-0-0-|--0-------0-0-0-0-0---0---0---0---|
--1-1-1-1-1-1-1-1-1-------1-1-1-1-|--1-------1-1-1-1-1---1---1---1---|


  S S S S S S S S S S S S S S S S    S S S S S S S S S S S S S S S S  
----------------------------------|----------------------------------|
----------------------------------|----------------------------------|
----------------------------------|----------------------------------|
----------------------------------|----------------------------------|
--0-0-0-0-0-0-0-0-0-------0-0-0-0-|--0-------0-0-0-0-0---0---0---0---|
--1-1-1-1-1-1-1-1-1-------1-1-1-1-|--1-------1-1-1-1-1---1---1---1---|


  S S S S S S S S S S S S S S S S    S S S S S S S S S S S S S S S S  
----------------------------------|----------------------------------|
----------------------------------|----------------------------------|
----------------------------------|----------------------------------|
----------------------------------|----------------------------------|
--0-0-0-0-0-0-0-0-0-------0-0-0-0-|--0-------0-0-0-0-0---0---0---0---|
--0-0-0-0-0-0-0-0-0-------0-0-0-0-|--0-------0-0-0-0-0---0---0---0---|


  S S S S S S S S S S S S S S S S    S S S S S S S S S S S S S S S S            
----------------------------------|----------------------------------|----|----|
----------------------------------|----------------------------------|----|----|
----------------------------------|----------------------------------|----|----|
----------------------------------|----------------------------------|----|----|
--0-0-0-0-0-0-0-0-0-------0-0-0-0-|--0-------0-0-0-0-0---0---0---0---|----|----|
--0-0-0-0-0-0-0-0-0-------0-0-0-0-|--0-------0-0-0-0-0---0---0---0---|----|----|


  S S S S S S S S S S S S S S S S    S S S S S S S S S S S S S S S S  
----------------------------------|----------------------------------|
----------------------------------|----------------------------------|
----------------------------------|----------------------------------|
----------------------------------|----------------------------------|
--0-0-0-0-0-0-0-0-0-------0-0-0-0-|--0-------0-0-0-0-0---0---0---0---|
--0-0-0-0-0-0-0-0-0-------0-0-0-0-|--0-------0-0-0-0-0---0---0---0---|


  E  E  E  E  E  E  E  E     S S S S S S S S S S S S S S S S  
--------------------------|----------------------------------|
--------------------------|----------------------------------|
--------------------------|----------------------------------|
--------------------------|----------------------------------|
--------0-----0-----0-----|--0-0-0-0-0-0-0-0-0-------0-0-0-0-|
--------1-----1-----1-----|--0-0-0-0-0-0-0-0-0-------0-0-0-0-|


  S S S S S S S S S S S S S S S S    S S S S S S S S S S S S S S S S  
----------------------------------|----------------------------------|
----------------------------------|----------------------------------|
----------------------------------|----------------------------------|
----------------------------------|----------------------------------|
--0-------0-0-0-0-0---0---0---0---|--0-0-0-0-0-0-0-0-0-------0-0-0-0-|
--0-------0-0-0-0-0---0---0---0---|--1-1-1-1-1-1-1-1-1-------1-1-1-1-|


  S S S S S S S S S S S S S S S S    S S S S S S S S S S S S S S S S  
----------------------------------|----------------------------------|
----------------------------------|----------------------------------|
----------------------------------|----------------------------------|
----------------------------------|----------------------------------|
--0-------0-0-0-0-0---0---0---0---|--0-0-0-0-0-0-0-0-0-------0-0-0-0-|
--1-------1-1-1-1-1---1---1---1---|--1-1-1-1-1-1-1-1-1-------1-1-1-1-|


  S S S S S S S S S S S S S S S S    S S S S S S S S S S S S S S S S  
----------------------------------|----------------------------------|
----------------------------------|----------------------------------|
----------------------------------|----------------------------------|
----------------------------------|----------------------------------|
--0-------0-0-0-0-0---0---0---0---|--0-0-0-0-0-0-0-0-0-------0-0-0-0-|
--1-------1-1-1-1-1---1---1---1---|--0-0-0-0-0-0-0-0-0-------0-0-0-0-|


  S S S S S S S S S S S S S S S S    S S S S S S S S S S S S S S S S  
----------------------------------|----------------------------------|
----------------------------------|----------------------------------|
----------------------------------|----------------------------------|
----------------------------------|----------------------------------|
--0-------0-0-0-0-0---0---0---0---|--0-0-0-0-0-0-0-0-0-------0-0-0-0-|
--0-------0-0-0-0-0---0---0---0---|--0-0-0-0-0-0-0-0-0-------0-0-0-0-|


  S S S S S S S S S S S S S S S S         E  E  E  E  E  E   E  E   
----------------------------------|----|---------------------------|
----------------------------------|----|---------------------------|
----------------------------------|----|---------------------------|
----------------------------------|----|---------------------------|
--0-------0-0-0-0-0---0---0---0---|----|--------7-----8-----10-----|
--0-------0-0-0-0-0---0---0---0---|----|--0--0-----0-----0------0--|


  E  E  E  E  E  E   E  E     E  E  E  E  E  E  E  E     E  S S S S  S S S  S  S S S  S  S S  
---------------------------|--------------------------|--------------------------------------|
---------------------------|--------------------------|--------------------------------------|
---------------------------|--------------------------|---------0-9-10---0-10-12---0-12-14---|
---------------------------|--------------------------|--------------------------------------|
--8-----7-----7-----10-----|--8-----7-----5-----4-----|--4-----------------------------------|
-----0-----0-----0------0--|-----0-----0-----0-----0--|--------------------------------------|


  E  E  E  E  E  E   E  E     E  E  E  E  E  E   E  E     E  E  E  E  E  E  E  E   
---------------------------|---------------------------|--------------------------|
---------------------------|---------------------------|--------------------------|
---------------------------|---------------------------|--------------------------|
---------------------------|---------------------------|--------------------------|
--------7-----8-----10-----|--8-----7-----7-----10-----|--8-----7-----5-----4-----|
--0--0-----0-----0------0--|-----0-----0-----0------0--|-----0-----0-----0-----0--|


  E  S S S S S S S S S S S S S S    E  E  E  E  E  E   E  E     E  E  E  E  E  E   E  E   
---------------------------------|---------------------------|---------------------------|
---------------------------------|---------------------------|---------------------------|
---------------------------------|---------------------------|---------------------------|
---------0-5-7---0-7-8---0-3-5---|---------------------------|---------------------------|
--4------------------------------|--------7-----8-----10-----|--8-----7-----7-----10-----|
---------------------------------|--0--0-----0-----0------0--|-----0-----0-----0------0--|


  E  E  E  E  E  E  E  E     E  S S S S  S S S  S  S S S  S  S S    E  E  E  E  E  E   E  E   
--------------------------|--------------------------------------|---------------------------|
--------------------------|--------------------------------------|---------------------------|
--------------------------|---------0-9-10---0-10-12---0-12-14---|---------------------------|
--------------------------|--------------------------------------|---------------------------|
--8-----7-----5-----4-----|--4-----------------------------------|--------7-----8-----10-----|
-----0-----0-----0-----0--|--------------------------------------|--0--0-----0-----0------0--|


  E  E  E  E  E  E   E  E     E  E  E  E  E  E  E  E     E  S S S S S S  H          
---------------------------|--------------------------|----------------------------|
---------------------------|--------------------------|----------------------------|
---------------------------|--------------------------|----------------------------|
---------------------------|--------------------------|----------------------------|
--8-----7-----7-----10-----|--8-----7-----5-----4-----|--4-------------------------|
-----0-----0-----0------0--|-----0-----0-----0-----0--|-----------------12\--------|


  E  E  E  E  E  E  E  E     E  E  E  E  E  E  E  E     E  E  E  E  E  E  E  E   
--------------------------|--------------------------|--------------------------|
--------------------------|--------------------------|--------------------------|
--------------------------|--------------------------|--------------------------|
--------------------------|--------------------------|--------------------------|
--0--0--0--------0-----0--|--0--0--0-----0--0--0-----|--0--0--0--------0-----0--|
--1--1--1--------1-----1--|--1--1--1-----1--1--1-----|--1--1--1--------1-----1--|


                      PH                                                            
  E  E  E  E  E  E    E   E     E  E  E  E  E  E  E  E     E  E  E  E  E  E  E  E   
-----------------------------|--------------------------|--------------------------|
-----------------------------|--------------------------|--------------------------|
-----------------------------|--------------------------|--------------------------|
-----------------------------|--------------------------|--------------------------|
--0--0--0-----0--0--<>3~-----|--0--0--0--------0-----0--|--0--0--0-----0--0--0-----|
--1--1--1-----1--1-----------|--1--1--1--------1-----1--|--1--1--1-----1--1--1-----|


                                                 PH                                 
  E  E  E  E  E  E  E  E     E  E  E  E  E  E    E   E     E  E  E  E  E  E  E  E   
--------------------------|-----------------------------|--------------------------|
--------------------------|-----------------------------|--------------------------|
--------------------------|-----------------------------|--------------------------|
--------------------------|-----------------------------|--------------------------|
--0--0--0--------0-----0--|--0--0--0-----0--0--<>3~-----|--0--0--0--------0-----0--|
--1--1--1--------1-----1--|--1--1--1-----1--1-----------|--1--1--1--------1-----1--|


  E  E  E  E  E  E  E  E     E  E  E  E  E  E  E  E     E  E  E  E  E  E  E  E   
--------------------------|--------------------------|--------------------------|
--------------------------|--------------------------|--------------------------|
--------------------------|--------------------------|--------------------------|
--------------------------|--------------------------|--------------------------|
--0--0--0-----0--0--0-----|--0--0--0--------0-----0--|--0--0--0--0--3--2--1--0--|
--1--1--1-----1--1--1-----|--1--1--1--------1-----1--|--1--1--1--0--3--2--1--0--|


  E  E  E  E  E  E  E  E     E  E  E  E  E  E  E  E     E  E  E  E  E  E  E  E   
--------------------------|--------------------------|--------------------------|
--------------------------|--------------------------|--------------------------|
--------------------------|--------------------------|--------------------------|
--------------------------|--------------------------|--------------------------|
--0--0--0--------0-----0--|--0--0--0-----0--0--0-----|--0--0--0--------0-----0--|
--1--1--1--------1-----1--|--1--1--1-----1--1--1-----|--1--1--1--------1-----1--|


                      PH                           
  E  E  E  E  E  E    E   E     W                  
-----------------------------|-------------------||
-----------------------------|-------------------||
-----------------------------|-------------------||
-----------------------------|-------------------||
--0--0--0-----0--0--<>3~-----|--0----------------||
--1--1--1-----1--1-----------|--0----------------||










guitar 2
                                          E   E   E   E   E   E   E   E   
D||--------|-------|-------|--------||-----------------------------------|
A||--------|-------|-------|--------||-----------------------------------|
F||*-------|-------|-------|-------*||*--14--14--14--14--14--14--14--14--|
C||*-------|-------|-------|-------*||*----------------------------------|
G||--------|-------|-------|--------||---12--12--12--12--12--12--12--12--|
C||--------|-------|-------|--------||-----------------------------------|


   E   E   E   E   E   E   E   E      E   E   E   E   E   E   E   E   
----------------------------------|----------------------------------|
----------------------------------|----------------------------------|
--17--17--17--17--17--17--17--17--|--10--10--10--10--10--10--10--10--|
----------------------------------|----------------------------------|
--15--15--15--15--15--15--15--15--|---8---8---8---8---8---8---8---8--|
----------------------------------|----------------------------------|


  E  E  E  E  E  E  E  E       E  E  E  E  E  E  E  E     E  E   E  E  E  E   E  E   
---------------------------||--------5-----------5-----|--------10-----------10-----|
---------------------------||-----6-----6-----6-----6--|-----8------8-----8------8--|
--5--5--5--5--5--5--5--5--*||--7-----------7-----------|--9------------9------------|
--------------------------*||--------------------------|----------------------------|
--3--3--3--3--3--3--3--3---||--------------------------|----------------------------|
---------------------------||--------------------------|----------------------------|


   E  E   E  E   E  E   E  E      E   E   E   E   E   E   E   E     E  E  E  E  E  E  E  E   
---------13------------13-----|--------------------------17--18--|--------5-----------5-----|
------8------8------8------8--|----------13--15--17--18----------|-----6-----6-----6-----6--|
--10------------10------------|------14--------------------------|--7-----------7-----------|
------------------------------|--15------------------------------|--------------------------|
------------------------------|----------------------------------|--------------------------|
------------------------------|----------------------------------|--------------------------|


  E  E   E  E  E  E   E  E      E  E   E  E   E  E   E  E      E   E   E   E   E   E   E   E   
--------10-----------10-----|---------13------------13-----|--------------------------17--18--|
-----8------8-----8------8--|------8------8------8------8--|----------13--15--17--18----------|
--9------------9------------|--10------------10------------|------14--------------------------|
----------------------------|------------------------------|--15------------------------------|
----------------------------|------------------------------|----------------------------------|
----------------------------|------------------------------|----------------------------------|


  E  E  E  E  E  E  E  E     E  E   E  E  E  E   E  E      E  E   E  E   E  E   E  E   
--------5-----------5-----|--------10-----------10-----|---------13------------13-----|
-----6-----6-----6-----6--|-----8------8-----8------8--|------8------8------8------8--|
--7-----------7-----------|--9------------9------------|--10------------10------------|
--------------------------|----------------------------|------------------------------|
--------------------------|----------------------------|------------------------------|
--------------------------|----------------------------|------------------------------|


   E   E   E   E   E   E   E   E     E  E  E  E  E  E  E  E     E  E   E  E  E  E   E  E   
--------------------------17--18--|--------5-----------5-----|--------10-----------10-----|
----------13--15--17--18----------|-----6-----6-----6-----6--|-----8------8-----8------8--|
------14--------------------------|--7-----------7-----------|--9------------9------------|
--15------------------------------|--------------------------|----------------------------|
----------------------------------|--------------------------|----------------------------|
----------------------------------|--------------------------|----------------------------|


   E  E   E  E   E  E   E  E      E   E   E   E   E   E   E   E   
---------13------------13-----|--------------------------17--18--|
------8------8------8------8--|----------13--15--17--18----------|
--10------------10------------|------14--------------------------|
------------------------------|--15------------------------------|
------------------------------|----------------------------------|
------------------------------|----------------------------------|


  S S S S S S S S S S S S S S S S     S  S  S  S  S  S  S  S  S  S  S  S  S  S  S  S  
----------------------------------|--------------------------------------------------|
----------------------------------|--------------------------------------------------|
--7-7-7-7-7-7-7-7-7-7-7-7-7-7-7-7-|--10-10-10-10-10-10-10-10-10-10-10-10-10-10-10-10-|
----------------------------------|--------------------------------------------------|
----------------------------------|--------------------------------------------------|
----------------------------------|--------------------------------------------------|


  S S S S S S S S S S S S S S S S     S  S  S  S  S  S  S  S  S  S  S  S  S  S  S  S  
----------------------------------|--------------------------------------------------|
----------------------------------|--------------------------------------------------|
--9-9-9-9-9-9-9-9-9-9-9-9-9-9-9-9-|--12-12-12-12-12-12-12-12-12-12-12-12-12-12-12-12-|
----------------------------------|--------------------------------------------------|
----------------------------------|--------------------------------------------------|
----------------------------------|--------------------------------------------------|


  S S S S S S S S S S S S S S S S     S  S  S  S  S  S  S  S  S  S  S  S  S  S  S  S  
----------------------------------|--------------------------------------------------|
----------------------------------|--------------------------------------------------|
--7-7-7-7-7-7-7-7-7-7-7-7-7-7-7-7-|--10-10-10-10-10-10-10-10-10-10-10-10-10-10-10-10-|
----------------------------------|--------------------------------------------------|
----------------------------------|--------------------------------------------------|
----------------------------------|--------------------------------------------------|


  S S S S S S S S S S S S S S S S     S  S  S  S  S  S  S  S  S  S  S  S  S  S  S  S  
----------------------------------|--------------------------------------------------|
----------------------------------|--------------------------------------------------|
--9-9-9-9-9-9-9-9-9-9-9-9-9-9-9-9-|--12-12-12-12-12-12-12-12-12-12-12-12-12-12-12-12-|
----------------------------------|--------------------------------------------------|
----------------------------------|--------------------------------------------------|
----------------------------------|--------------------------------------------------|


   E   E   E   E   E   E   E   E     H         H            S S S S S S S S S S S S S S S S  
----------------------------------|----------------------|----------------------------------|
--------------11------------------|----------------------|----------------------------------|
--10--12--14------14--12----------|----------------------|----------------------------------|
--------------------------14--10--|----------------------|----------------------------------|
----------------------------------|----------------------|--0-0-0-0-0-----------0-----0-----|
----------------------------------|-----------12\--------|--0-0-0-0-0-----------0-----0-----|


  S S S S S S S S S S S S S S S S    S S S S S S S S S S S S S S S S  
----------------------------------|----------------------------------|
----------------------------------|----------------------------------|
----------------------------------|----------------------------------|
----------------------------------|----------------------------------|
--0-0-0-0-0-------0-0-0-0-0-------|--0-0-0-0-0-----------0-----0-----|
--0-0-0-0-0-------0-0-0-0-0-------|--0-0-0-0-0-----------0-----0-----|


  S S S S S S S S S S S S S S S S    S S S S S S S S S S S S S S S S  
----------------------------------|----------------------------------|
----------------------------------|----------------------------------|
----------------------------------|----------------------------------|
----------------------------------|----------------------------------|
--0-0-0-0-0-------0-0-0-0-1-------|--0-0-0-0-0-----------0-----0-----|
--0-0-0-0-0-------0-0-0-0-1-------|--0-0-0-0-0-----------0-----0-----|


  S S S S S S S S S S S S S S S S    S S S S S S S S S S S S S S S S  
----------------------------------|----------------------------------|
----------------------------------|----------------------------------|
----------------------------------|----------------------------------|
----------------------------------|----------------------------------|
--0-0-0-0-0-------0-0-0-0-0-------|--0-0-0-0-0-----------0-----0-----|
--0-0-0-0-0-------0-0-0-0-0-------|--0-0-0-0-0-----------0-----0-----|


  S S S S S S S S S S S S S S S S    S S S S S S S S S S S S S S S S  
----------------------------------|----------------------------------|
----------------------------------|----------------------------------|
----------------------------------|----------------------------------|
----------------------------------|----------------------------------|
--0-0-0-0-0-------0-0-0-0-1-------|--0-0-0-0-0-----------0-----0-----|
--0-0-0-0-0-------0-0-0-0-1-------|--0-0-0-0-0-----------0-----0-----|


  S S S S S S S S S S S S S S S S    S S S S S S S S S S S S S S S S  
----------------------------------|----------------------------------|
----------------------------------|----------------------------------|
----------------------------------|----------------------------------|
----------------------------------|----------------------------------|
--0-0-0-0-0-------0-0-0-0-0-------|--0-0-0-0-0-----------0-----0-----|
--0-0-0-0-0-------0-0-0-0-0-------|--0-0-0-0-0-----------0-----0-----|


  S S S S S S S S S S S S S S S S    S S S S S S S S S S S S S S S S  
----------------------------------|----------------------------------|
----------------------------------|----------------------------------|
----------------------------------|----------------------------------|
----------------------------------|----------------------------------|
--0-0-0-0-0-------0-0-0-0-1-------|--0-0-0-0-0-----------0-----0-----|
--0-0-0-0-0-------0-0-0-0-1-------|--0-0-0-0-0-----------0-----0-----|


  S S S S S S S S S S S S S S S S    S S S S S S S S S S S S S S S S  
----------------------------------|----------------------------------|
----------------------------------|----------------------------------|
----------------------------------|----------------------------------|
----------------------------------|----------------------------------|
--0-0-0-0-0-------0-0-0-0-0-------|--0-0-0-0-0-----------0-----0-----|
--0-0-0-0-0-------0-0-0-0-0-------|--0-0-0-0-0-----------0-----0-----|


  S S S S S S S S S S S S S S S S         E  E  E  E  E  E  E  E   
----------------------------------|----|--------------------------|
----------------------------------|----|--------------------------|
----------------------------------|----|--------------------------|
----------------------------------|----|--------7--------6--------|
--0-0-0-0-0-------0-0-0-0-1-------|----|--------------------------|
--0-0-0-0-0-------0-0-0-0-1-------|----|--0--0-----0--0-----0--0--|


   E  E  E  E  E  E   E  E     E  E  E  E  E  E  E  E   
----------------------------|--------------------------|
----------------------------|--------------------------|
--10--------9---------------|--------------------------|
---------------------10-----|--------7--------6--------|
----------------------------|--------------------------|
------0--0-----0--0---------|--0--0-----0--0-----0--0--|


  S  S  S S S  S  S S S  S  S S S  S  S S    E  E  E  E  E  E  E  E   
------------------------------------------|--------------------------|
------------------------------------------|--------------------------|
--0-12-14---0-14-15---0-15-17---0-17-19---|--------------------------|
------------------------------------------|--------7--------6--------|
------------------------------------------|--------------------------|
------------------------------------------|--0--0-----0--0-----0--0--|


   E  E  E  E  E  E   E  E     E  E  E  E  E  E  E  E     S S S S S S S S S S S S S S S S  
----------------------------|--------------------------|----------------------------------|
----------------------------|--------------------------|----------------------------------|
--10--------9---------------|--------------------------|----------------------------------|
---------------------10-----|--------7--------6--------|----------------------------------|
----------------------------|--------------------------|--3-3-3---3-3-3---5-5-5---5-5-5---|
------0--0-----0--0---------|--0--0-----0--0-----0--0--|--3-3-3---3-3-3---5-5-5---5-5-5---|


  E  E  E  E  E  E  E  E      E  E  E  E  E  E   E  E     E  E  E  E  E  E  E  E   
--------------------------|----------------------------|--------------------------|
--------------------------|----------------------------|--------------------------|
--------------------------|--10--------9---------------|--------------------------|
--------7--------6--------|---------------------10-----|--------7--------6--------|
--------------------------|----------------------------|--------------------------|
--0--0-----0--0-----0--0--|------0--0-----0--0---------|--0--0-----0--0-----0--0--|


  S  S  S S S  S  S S S  S  S S S  S  S S    E  E  E  E  E  E  E  E   
------------------------------------------|--------------------------|
------------------------------------------|--------------------------|
--0-12-14---0-14-15---0-15-17---0-17-19---|--------------------------|
------------------------------------------|--------7--------6--------|
------------------------------------------|--------------------------|
------------------------------------------|--0--0-----0--0-----0--0--|


   E  E  E  E  E  E   E  E     E  E  E  E  E  E  E  E     S S S S S S S S S S S S S S S S  
----------------------------|--------------------------|----------------------------------|
----------------------------|--------------------------|----------------------------------|
--10--------9---------------|--------------------------|----------------------------------|
---------------------10-----|--------7--------6--------|----------------------------------|
----------------------------|--------------------------|--3-3-3---3-3-3---5-5-5---5-5-5---|
------0--0-----0--0---------|--0--0-----0--0-----0--0--|--3-3-3---3-3-3---5-5-5---5-5-5---|


  S S S S S S S S S S S S S S S S    E   E  E  E  E  E  E  E     E   E  E  E   E  E  E   E    
----------------------------------|---------------------------|------------------------------|
----------------------------------|---------------------------|------------------------------|
----------------------------------|---------------------------|------------------------------|
----------------------------------|---------------------------|------------------------------|
--8-8-8---8-8-8---7-7-7---7-7-7---|--5p--4--------------------|--5p--4-----8p--7-----5p--4h--|
--8-8-8---8-8-8---7-7-7---7-7-7---|---------0--0--0--0--0--0--|---------0---------0----------|


  E   E  E  E  E  E  E  E     E  E  E  E  E  E  E  E     E   E  E  E  E  E  E  E   
---------------------------|--------------------------|---------------------------|
---------------------------|--------------------------|---------------------------|
---------------------------|--------------------------|---------------------------|
---------------------------|--------------------------|---------------------------|
--5p--4--------------------|--0--4--7--0--5--8--1--0--|--5p--4--------------------|
---------0--0--0--0--0--0--|--0--4--7--0--5--8--1--0--|---------0--0--0--0--0--0--|


  E   E  E  E   E  E  E   E      E   E  E  E  E  E  E  E     S S S S S S S S S S S S S S S S  
------------------------------|---------------------------|----------------------------------|
------------------------------|---------------------------|----------------------------------|
------------------------------|---------------------------|----------------------------------|
------------------------------|---------------------------|----------------------------------|
--5p--4-----8p--7-----5p--4h--|--5p--4--------------------|--3-3-3---5-5-5---8-8-8---7-7-7---|
---------0---------0----------|---------0--0--0--0--0--0--|--3-3-3---5-5-5---8-8-8---7-7-7---|


  E   E  E  E  E  E  E  E     E   E  E   E    E  E  E   E      E   E  E  E  E  E  E  E   
---------------------------|--------------------------------|---------------------------|
---------------------------|--------------------------------|---------------------------|
---------------------------|--------------------------------|---------------------------|
---------------------------|--------------------------------|---------------------------|
--8p--7--------------------|--8p--7-----12p--10-----8p--7h--|--8p--7--------------------|
---------0--0--0--0--0--0--|---------0-----------0----------|---------0--0--0--0--0--0--|


  E  E  E  E  E  E  E  E     E   E  E  E  E  E  E  E     E   E  E   E    E  E  E   E    
--------------------------|---------------------------|--------------------------------|
--------------------------|---------------------------|--------------------------------|
--------------------------|---------------------------|--------------------------------|
--------------------------|---------------------------|--------------------------------|
--0--4--7--0--5--8--1--0--|--8p--7--------------------|--8p--7-----12p--10-----8p--7h--|
--0--4--7--0--5--8--1--0--|---------0--0--0--0--0--0--|---------0-----------0----------|


  E   E  E  E  E  E  E  E       S S S S S S S S S S S S S S S S  3x
---------------------------||------------------------------------||
---------------------------||------------------------------------||
---------------------------||*----------------------------------*||
---------------------------||*----------------------------------*||
--8p--7--------------------||---3-3-3---5-5-5---8-8-8---7-7-7----||
---------0--0--0--0--0--0--||---3-3-3---5-5-5---8-8-8---7-7-7----||


   S  S  S  S  S  S  S  S  S  S  S  S  S  S  S  S  
--------------------------------------------------|
--------------------------------------------------|
--------------------------------------------------|
--12-12-12-12-12-12-12-12-12-12-12-12-12-12-12-12-|
--------------------------------------------------|
--------------------------------------------------|


   S  S  S  S  S  S  S  S  S  S  S  S  S  S  S  S  
--------------------------------------------------|
--------------------------------------------------|
--10-10-10-10-10-10-10-10-10-10-10-10-10-10-10-10-|
--------------------------------------------------|
--------------------------------------------------|
--------------------------------------------------|


   S  S  S  S  S  S  S  S  S  S  S  S  S  S  S  S    S S S S S S S S S S S S S S S S  
--------------------------------------------------|----------------------------------|
--------------------------------------------------|----------------------------------|
--------------------------------------------------|----------------------------------|
--11-11-11-11-11-11-11-11-11-11-11-11-11-11-11-11-|--7-7-7-7-7-7-7-7-7-7-7-7-7-7-7-7-|
--------------------------------------------------|----------------------------------|
--------------------------------------------------|----------------------------------|


   S  S  S  S  S  S  S  S  S  S  S  S  S  S  S  S  
--------------------------------------------------|
--------------------------------------------------|
--------------------------------------------------|
--12-12-12-12-12-12-12-12-12-12-12-12-12-12-12-12-|
--------------------------------------------------|
--------------------------------------------------|


   S  S  S  S  S  S  S  S  S  S  S  S  S  S  S  S  
--------------------------------------------------|
--------------------------------------------------|
--10-10-10-10-10-10-10-10-10-10-10-10-10-10-10-10-|
--------------------------------------------------|
--------------------------------------------------|
--------------------------------------------------|


   S  S  S  S  S  S  S  S  S  S  S  S  S  S  S  S    S S S S S S S S S S S S S S S S  
--------------------------------------------------|----------------------------------|
--------------------------------------------------|----------------------------------|
--------------------------------------------------|----------------------------------|
--11-11-11-11-11-11-11-11-11-11-11-11-11-11-11-11-|--7-7-7-7-7-7-7-7-7-7-7-7-7-7-7-7-|
--------------------------------------------------|----------------------------------|
--------------------------------------------------|----------------------------------|


   S  S  S  S  S  S  S  S  S  S  S  S  S  S  S  S  
--------------------------------------------------|
--------------------------------------------------|
--------------------------------------------------|
--12-12-12-12-12-12-12-12-12-12-12-12-12-12-12-12-|
--------------------------------------------------|
--------------------------------------------------|


   S  S  S  S  S  S  S  S  S  S  S  S  S  S  S  S  
--------------------------------------------------|
--------------------------------------------------|
--10-10-10-10-10-10-10-10-10-10-10-10-10-10-10-10-|
--------------------------------------------------|
--------------------------------------------------|
--------------------------------------------------|


   S  S  S  S  S  S  S  S  S  S  S  S  S  S  S  S    S S S S S S S S S S S S S S S S  
--------------------------------------------------|----------------------------------|
--------------------------------------------------|----------------------------------|
--------------------------------------------------|----------------------------------|
--11-11-11-11-11-11-11-11-11-11-11-11-11-11-11-11-|--7-7-7-7-7-7-7-7-7-7-7-7-7-7-7-7-|
--------------------------------------------------|----------------------------------|
--------------------------------------------------|----------------------------------|


   S  S  S  S  S  S  S  S  S  S  S  S  S  S  S  S  
--------------------------------------------------|
--------------------------------------------------|
--------------------------------------------------|
--12-12-12-12-12-12-12-12-12-12-12-12-12-12-12-12-|
--------------------------------------------------|
--------------------------------------------------|


   S  S  S  S  S  S  S  S  S  S  S  S  S  S  S  S  
--------------------------------------------------|
--------------------------------------------------|
--10-10-10-10-10-10-10-10-10-10-10-10-10-10-10-10-|
--------------------------------------------------|
--------------------------------------------------|
--------------------------------------------------|


   S  S  S  S  S  S  S  S  S  S  S  S  S  S  S  S    S S S S S S S S S S S S S S S S  
--------------------------------------------------|----------------------------------|
--------------------------------------------------|----------------------------------|
--------------------------------------------------|----------------------------------|
--11-11-11-11-11-11-11-11-11-11-11-11-11-11-11-11-|--7-7-7-7-7-7-7-7-7-7-7-7-7-7-7-7-|
--------------------------------------------------|----------------------------------|
--------------------------------------------------|----------------------------------|


  S S S S S S S S S S S S S S S S    S S S S S S S S S S S S S S S S  
----------------------------------|----------------------------------|
----------------------------------|----------------------------------|
----------------------------------|----------------------------------|
----------------------------------|--3-3-3-3-3-3-3-3-3-3-3-3-3-3-3-3-|
--5-5-5-5-5-5-5-5-5-5-5-5-5-5-5-5-|----------------------------------|
----------------------------------|----------------------------------|


  S S S S S S S S S S S S S S S S    S S S S S S S S S S S S S S S S  
----------------------------------|----------------------------------|
----------------------------------|----------------------------------|
----------------------------------|----------------------------------|
----------------------------------|----------------------------------|
--4-4-4-4-4-4-4-4-4-4-4-4-4-4-4-4-|--0-0-0-0-0-0-0-0-0-0-0-0-0-0-0-0-|
----------------------------------|----------------------------------|


  S S S S S S S S S S S S S S S S    S S S S S S S S S S S S S S S S  
----------------------------------|----------------------------------|
----------------------------------|----------------------------------|
----------------------------------|----------------------------------|
----------------------------------|--3-3-3-3-3-3-3-3-3-3-3-3-3-3-3-3-|
--5-5-5-5-5-5-5-5-5-5-5-5-5-5-5-5-|----------------------------------|
----------------------------------|----------------------------------|


  S S S S S S S S S S S S S S S S    S S S S S S S S S S S S S S S S            
----------------------------------|----------------------------------|----|----|
----------------------------------|----------------------------------|----|----|
----------------------------------|----------------------------------|----|----|
----------------------------------|----------------------------------|----|----|
--4-4-4-4-4-4-4-4-4-4-4-4-4-4-4-4-|--0-0-0-0-0-0-0-0-0-0-0-0-0-0-0-0-|----|----|
----------------------------------|----------------------------------|----|----|


  S S S S S S S S S S S S S S S S    S S S S S S S S S S S S S S S S  
----------------------------------|----------------------------------|
----------------------------------|----------------------------------|
----------------------------------|----------------------------------|
----------------------------------|----------------------------------|
--0-0-0-0-0-0-0-0-0-------0-0-0-0-|--0-------0-0-0-0-0---0---0---0---|
--0-0-0-0-0-0-0-0-0-------0-0-0-0-|--0-------0-0-0-0-0---0---0---0---|


  E  E  E  E  E  E  E  E     S S S S S S S S S S S S S S S S  
--------------------------|----------------------------------|
--------------------------|----------------------------------|
--------------------------|----------------------------------|
--------------------------|----------------------------------|
--------0-----0-----0-----|--0-0-0-0-0-0-0-0-0-------0-0-0-0-|
--------1-----1-----1-----|--0-0-0-0-0-0-0-0-0-------0-0-0-0-|


  S S S S S S S S S S S S S S S S    S S S S S S S S S S S S S S S S  
----------------------------------|----------------------------------|
----------------------------------|----------------------------------|
----------------------------------|----------------------------------|
----------------------------------|----------------------------------|
--0-------0-0-0-0-0---0---0---0---|--0-0-0-0-0-0-0-0-0-------0-0-0-0-|
--0-------0-0-0-0-0---0---0---0---|--1-1-1-1-1-1-1-1-1-------1-1-1-1-|


  S S S S S S S S S S S S S S S S    S S S S S S S S S S S S S S S S  
----------------------------------|----------------------------------|
----------------------------------|----------------------------------|
----------------------------------|----------------------------------|
----------------------------------|----------------------------------|
--0-------0-0-0-0-0---0---0---0---|--0-0-0-0-0-0-0-0-0-------0-0-0-0-|
--1-------1-1-1-1-1---1---1---1---|--1-1-1-1-1-1-1-1-1-------1-1-1-1-|


  S S S S S S S S S S S S S S S S    S S S S S S S S S S S S S S S S  
----------------------------------|----------------------------------|
----------------------------------|----------------------------------|
----------------------------------|----------------------------------|
----------------------------------|----------------------------------|
--0-------0-0-0-0-0---0---0---0---|--0-0-0-0-0-0-0-0-0-------0-0-0-0-|
--1-------1-1-1-1-1---1---1---1---|--0-0-0-0-0-0-0-0-0-------0-0-0-0-|


  S S S S S S S S S S S S S S S S    S S S S S S S S S S S S S S S S  
----------------------------------|----------------------------------|
----------------------------------|----------------------------------|
----------------------------------|----------------------------------|
----------------------------------|----------------------------------|
--0-------0-0-0-0-0---0---0---0---|--0-0-0-0-0-0-0-0-0-------0-0-0-0-|
--0-------0-0-0-0-0---0---0---0---|--0-0-0-0-0-0-0-0-0-------0-0-0-0-|


  S S S S S S S S S S S S S S S S         E  E   E  E   E  E   E  E   
----------------------------------|----|-----------------------------|
----------------------------------|----|-----------------------------|
----------------------------------|----|---------
Добавлено: 17.06.2012
Другие материалы по этой песне:

Страница создана 10.03.2012
http://primanota.ru/such-creatures-exist/snakebites-vs-prom-dresses-chords.htm
Привет, Гость.
Предлагаем пройти революционный курс по гитаре.
Подарок от PrimaNota.Ru, забирай!