PrimaNota.ru - самый крупный в мире бесплатный архив песенных текстов, аккордов, табулатур и нот


Suburban Scum - Refuse To Suffer - таба, видео

Регистрация Запомнить меня
Войти через:  Facebook Google Twitter Vk Yandex Mail.ru

Suburban Scum - Refuse To Suffer - таба, видео

Печатать
Просмотров: 88
Уроки эстрадного вокала в Санкт-Петербурге
Suburban Scum - Refuse to Suffer
Xibalba/Suburban Scum Split
Tabbed by: Matt Tompkins (lpguitarplayer3)

Tuning - D Standard

D|----------------------------------------|
A|----------------------------------------|
F|----------------------------------------|
C|--4~~~-5~~~-8~~~~~--4~~~-5~~~-8-7~~~~~--| x2
G|--2~~~-3~~~-6~~~~~--2~~~-3~~~-6-5~~~~~--|
D|--2~~~-3~~~-6~~~~~--2~~~-3~~~-6-5~~~~~--|


Harmony played during 2nd time:
D|------------------------------------------|
A|------------------------------------------|
F|--8~~~-12~~~-11~~~~-8~~~-12~~~-12-11~~~~~-|
C|--x----x-----x------x----x-----x--x-------|
G|--6~~~-10~~~-9~~~~~-6~~~-10~~~-10-9~~~~~--|
D|------------------------------------------|


PRE-VERSE RIFF:
D|--------------------------------------------------|
A|--------------------------------------------------|
F|--------------------------------------------------|
C|--4-5----------8-7-3-4----4-5----------8-7-3~~~~--| x2
G|--2-3----------6-5-1-2----4-5----------6-5-1~~~~--|
D|--2-3-00000000-6-5-1-2--0-2-3-00000000-6-5-1~~~~--|
        ........          .     ........


D|--------------------------------|
A|--------------------------------|
F|--------------------------------|
C|--4~~~~-7--6--7--3~~~~-7--6--7--| x2
G|--2~~~~-5--4--5--1~~~~-5--4--5--|
D|--2~~~~-5--4--5--1~~~~-5--4--5--|


VERSE RIFF A:
D|-----------------------------------------------------------|
A|-----------------------------------------------------------|
F|-----------------------------------------------------------|
C|--7--6-7-------4---6---7---6-----7--6-7-------4---6---3~---| x3
G|--5--4-5-------2---4---5---4-----5--4-5-------2---4---1~---|
D|---------0-0-0-2-0-4-0-5-0-4-0-0--------0-0-0-2-0-4-0-1~---|
           . . .   .   .   .   . .        . . .   .   . 


VERSE RIFF B:
D|-----------------------------------------------------------|
A|-----------------------------------------------------------|
F|-----------------------------------------------------------|
C|--7--6-7-------4---6---7---6-----7--6-7-------4---6---3~---| x2
G|--5--4-5-------2---4---5---4-----5--4-5-------2---4---1~---|
D|---------0-000-2-0-4-0-5-0-4-0-0--------0-000-2-0-4-0-1~---|
           . ...   .   .   .   . .        . ...   .   .      


CHORUS RIFF:
D|--------------------------------|
A|--------------------------------|
F|--------------------------------|
C|--4~~~~-7--6--7--3~~~~-7--6--7--| 
G|--2~~~~-5--4--5--1~~~~-5--4--5--|
D|--2~~~~-5--4--5--1~~~~-5--4--5--|
     

D|----------------------------------------------------|
A|----------------------------------------------------|
F|----------------------------------------------------|
C|--4~~4-4-4-4-4----7--6--7--3~~3-3-3-3-3----7--6--7--| 
G|--2~~2-2-2-2-2----5--4--5--1~~1-1-1-1-1----5--4--5--|
D|--2~~2-2-2-2-2-2--5--4--5--1~~1-1-1-1-1-1--5--4--5--|
       . . . . . .              . . . . . .


VERSE RIFF B x2
VERSE RIFF A x2
CHORUS RIFF
PRE-VERSE RIFF x3

OUTRO:
D|----------------------------|
A|----------------------------|
F|----------------------------|
C|--4-5----------4-5-3-3-3-3--| x4
G|--2-3----------2-3-1-1-1-1--|
D|--2-3-00000000-2-3-1-1-1-1--|
        ........       . . .
Добавлено: 28.10.2015
Другие материалы по этой песне:
  • Аккорды и текст

Страница создана 28.10.2015
http://primanota.ru/suburban-scum/refuse-to-suffer-chords.htm
Привет, Гость.
Предлагаем пройти революционный курс по гитаре.
Подарок от PrimaNota.Ru, забирай!